  0
SECTION
  2
HEADER
  9
$ACADVER
  1
AC1009
  9
$DWGCODEPAGE
  3
ansi_1252
  9
$INSBASE
 10
0.0
 20
0.0
 30
0.0
  9
$EXTMIN
 10
-315.0016114356596
 20
-76.77177713
 30
0.0
  9
$EXTMAX
 10
35.19778847157911
 20
53.27721112705001
 30
0.0
  9
$LIMMIN
 10
0.0
 20
0.0
  9
$LIMMAX
 10
12.0
 20
9.0
  9
$ORTHOMODE
 70
     0
  9
$REGENMODE
 70
     1
  9
$FILLMODE
 70
     1
  9
$QTEXTMODE
 70
     0
  9
$MIRRTEXT
 70
     1
  9
$DRAGMODE
 70
     2
  9
$LTSCALE
 40
1.0
  9
$OSMODE
 70
    37
  9
$ATTMODE
 70
     1
  9
$TEXTSIZE
 40
0.2
  9
$TRACEWID
 40
0.05
  9
$TEXTSTYLE
  7
STANDARD
  9
$CLAYER
  8
0
  9
$CELTYPE
  6
BYLAYER
  9
$CECOLOR
 62
   256
  9
$DIMSCALE
 40
1.0
  9
$DIMASZ
 40
0.18
  9
$DIMEXO
 40
0.0625
  9
$DIMDLI
 40
0.38
  9
$DIMRND
 40
0.0
  9
$DIMDLE
 40
0.0
  9
$DIMEXE
 40
0.18
  9
$DIMTP
 40
0.0
  9
$DIMTM
 40
0.0
  9
$DIMTXT
 40
0.18
  9
$DIMCEN
 40
0.09
  9
$DIMTSZ
 40
0.0
  9
$DIMTOL
 70
     0
  9
$DIMLIM
 70
     0
  9
$DIMTIH
 70
     1
  9
$DIMTOH
 70
     1
  9
$DIMSE1
 70
     0
  9
$DIMSE2
 70
     0
  9
$DIMTAD
 70
     0
  9
$DIMZIN
 70
     0
  9
$DIMBLK
  1

  9
$DIMASO
 70
     1
  9
$DIMSHO
 70
     1
  9
$DIMPOST
  1

  9
$DIMAPOST
  1

  9
$DIMALT
 70
     0
  9
$DIMALTD
 70
     2
  9
$DIMALTF
 40
25.4
  9
$DIMLFAC
 40
1.0
  9
$DIMTOFL
 70
     0
  9
$DIMTVP
 40
0.0
  9
$DIMTIX
 70
     0
  9
$DIMSOXD
 70
     0
  9
$DIMSAH
 70
     0
  9
$DIMBLK1
  1

  9
$DIMBLK2
  1

  9
$DIMSTYLE
  2
STANDARD
  9
$DIMCLRD
 70
     0
  9
$DIMCLRE
 70
     0
  9
$DIMCLRT
 70
     0
  9
$DIMTFAC
 40
1.0
  9
$DIMGAP
 40
0.09
  9
$LUNITS
 70
     2
  9
$LUPREC
 70
     3
  9
$SKETCHINC
 40
0.1
  9
$FILLETRAD
 40
0.5
  9
$AUNITS
 70
     0
  9
$AUPREC
 70
     0
  9
$MENU
  1
.
  9
$ELEVATION
 40
0.0
  9
$PELEVATION
 40
0.0
  9
$THICKNESS
 40
0.0
  9
$LIMCHECK
 70
     0
  9
$CHAMFERA
 40
0.0
  9
$CHAMFERB
 40
0.0
  9
$SKPOLY
 70
     0
  9
$TDCREATE
 40
2458282.656602593
  9
$TDUPDATE
 40
2458282.656626921
  9
$TDINDWG
 40
0.0000000116
  9
$TDUSRTIMER
 40
0.0000000116
  9
$USRTIMER
 70
     1
  9
$ANGBASE
 50
0.0
  9
$ANGDIR
 70
     0
  9
$PDMODE
 70
     0
  9
$PDSIZE
 40
0.0
  9
$PLINEWID
 40
0.0
  9
$COORDS
 70
     1
  9
$SPLFRAME
 70
     0
  9
$SPLINETYPE
 70
     6
  9
$SPLINESEGS
 70
     8
  9
$ATTDIA
 70
     0
  9
$ATTREQ
 70
     1
  9
$HANDLING
 70
     1
  9
$HANDSEED
  5
3E4
  9
$SURFTAB1
 70
     6
  9
$SURFTAB2
 70
     6
  9
$SURFTYPE
 70
     6
  9
$SURFU
 70
     6
  9
$SURFV
 70
     6
  9
$UCSNAME
  2

  9
$UCSORG
 10
0.0
 20
0.0
 30
0.0
  9
$UCSXDIR
 10
1.0
 20
0.0
 30
0.0
  9
$UCSYDIR
 10
0.0
 20
1.0
 30
0.0
  9
$PUCSNAME
  2

  9
$PUCSORG
 10
0.0
 20
0.0
 30
0.0
  9
$PUCSXDIR
 10
1.0
 20
0.0
 30
0.0
  9
$PUCSYDIR
 10
0.0
 20
1.0
 30
0.0
  9
$USERI1
 70
     0
  9
$USERI2
 70
     0
  9
$USERI3
 70
     0
  9
$USERI4
 70
     0
  9
$USERI5
 70
     0
  9
$USERR1
 40
0.0
  9
$USERR2
 40
0.0
  9
$USERR3
 40
0.0
  9
$USERR4
 40
0.0
  9
$USERR5
 40
0.0
  9
$WORLDVIEW
 70
     1
  9
$SHADEDGE
 70
     3
  9
$SHADEDIF
 70
    70
  9
$TILEMODE
 70
     1
  9
$MAXACTVP
 70
    64
  9
$PLIMCHECK
 70
     0
  9
$PEXTMIN
 10
1.000000000000000E+20
 20
1.000000000000000E+20
 30
1.000000000000000E+20
  9
$PEXTMAX
 10
-1.000000000000000E+20
 20
-1.000000000000000E+20
 30
-1.000000000000000E+20
  9
$PLIMMIN
 10
0.0
 20
0.0
  9
$PLIMMAX
 10
12.0
 20
9.0
  9
$UNITMODE
 70
     0
  9
$VISRETAIN
 70
     1
  9
$PLINEGEN
 70
     0
  9
$PSLTSCALE
 70
     1
  0
ENDSEC
  0
SECTION
  2
TABLES
  0
TABLE
  2
VPORT
 70
     1
  0
VPORT
  2
*ACTIVE
 70
     0
 10
0.0
 20
0.0
 11
1.0
 21
1.0
 12
-139.9019114820402
 22
-11.747283001475
 13
0.0
 23
0.0
 14
0.5
 24
0.5
 15
0.5
 25
0.5
 16
0.0
 26
0.0
 36
1.0
 17
0.0
 27
0.0
 37
0.0
 40
132.649968022191
 41
2.692826792431845
 42
50.0
 43
0.0
 44
0.0
 50
0.0
 51
0.0
 71
     0
 72
   100
 73
     1
 74
     3
 75
     0
 76
     0
 77
     0
 78
     0
  0
ENDTAB
  0
TABLE
  2
LTYPE
 70
     1
  0
LTYPE
  2
CONTINUOUS
 70
     0
  3
Solid line
 72
    65
 73
     0
 40
0.0
  0
ENDTAB
  0
TABLE
  2
LAYER
 70
     2
  0
LAYER
  2
0
 70
     0
 62
     7
  6
CONTINUOUS
  0
LAYER
  2
LAYER_01
 70
     0
 62
     1
  6
CONTINUOUS
  0
ENDTAB
  0
TABLE
  2
STYLE
 70
     1
  0
STYLE
  2
STANDARD
 70
     0
 40
0.0
 41
1.0
 50
0.0
 71
     0
 42
0.2
  3
txt
  4

  0
ENDTAB
  0
TABLE
  2
VIEW
 70
     0
  0
ENDTAB
  0
TABLE
  2
UCS
 70
     0
  0
ENDTAB
  0
TABLE
  2
APPID
 70
     1
  0
APPID
  2
ACAD
 70
     0
  0
ENDTAB
  0
TABLE
  2
DIMSTYLE
 70
     1
  0
DIMSTYLE
  2
STANDARD
 70
     0
  3

  4

  5

  6

  7

 40
1.0
 41
0.18
 42
0.0625
 43
0.38
 44
0.18
 45
0.0
 46
0.0
 47
0.0
 48
0.0
140
0.18
141
0.09
142
0.0
143
25.4
144
1.0
145
0.0
146
1.0
147
0.09
 71
     0
 72
     0
 73
     1
 74
     1
 75
     0
 76
     0
 77
     0
 78
     0
170
     0
171
     2
172
     0
173
     0
174
     0
175
     0
176
     0
177
     0
178
     0
  0
ENDTAB
  0
ENDSEC
  0
SECTION
  2
BLOCKS
  0
BLOCK
  8
0
  2
$MODEL_SPACE
 70
     0
 10
0.0
 20
0.0
 30
0.0
  3
$MODEL_SPACE
  1

  0
ENDBLK
  5
21
  8
0
  0
BLOCK
 67
     1
  8
0
  2
$PAPER_SPACE
 70
     0
 10
0.0
 20
0.0
 30
0.0
  3
$PAPER_SPACE
  1

  0
ENDBLK
  5
1D
 67
     1
  8
0
  0
ENDSEC
  0
SECTION
  2
ENTITIES
  0
ARC
  5
6F
  8
LAYER_01
  6
CONTINUOUS
 62
     1
 10
-296.48499813025
 20
2.501014914650008
 30
0.0
 40
3.499999999999992
 50
205.6543547927001
 51
154.3456452071997
  0
ARC
  5
70
  8
LAYER_01
  6
CONTINUOUS
 62
     1
 10
-300.09068698555
 20
4.232779297850009
 30
0.0
 40
0.5000000000000064
 50
270.0
 51
334.3456452071998
  0
ARC
  5
71
  8
LAYER_01
  6
CONTINUOUS
 62
     1
 10
-300.09068698555
 20
0.769250531450008
 30
0.0
 40
0.5000000000000023
 50
25.6543547926989
 51
90.0
  0
ARC
  5
72
  8
LAYER_01
  6
CONTINUOUS
 62
     1
 10
-301.30362117835
 20
4.032779297850007
 30
0.0
 40
0.2999999999999998
 50
180.0
 51
270.0
  0
ARC
  5
73
  8
LAYER_01
  6
CONTINUOUS
 62
     1
 10
-301.30362117835
 20
0.969250531450008
 30
0.0
 40
0.2999999999999998
 50
90.0
 51
180.0
  0
LINE
  5
74
  8
LAYER_01
  6
CONTINUOUS
 62
     1
 10
-297.60362117835
 20
48.50101491465001
 30
0.0
 11
-297.60362117835
 21
52.50101491465001
 31
0.0
  0
LINE
  5
75
  8
LAYER_01
  6
CONTINUOUS
 62
     1
 10
-293.60362117835
 20
52.50101491465001
 30
0.0
 11
-297.60362117835
 21
52.50101491465001
 31
0.0
  0
LINE
  5
76
  8
LAYER_01
  6
CONTINUOUS
 62
     1
 10
-293.60362117835
 20
48.50101491465001
 30
0.0
 11
-293.60362117835
 21
52.50101491465001
 31
0.0
  0
LINE
  5
77
  8
LAYER_01
  6
CONTINUOUS
 62
     1
 10
-289.60362117835
 20
48.50101491465001
 30
0.0
 11
-289.60362117835
 21
52.50101491465001
 31
0.0
  0
LINE
  5
78
  8
LAYER_01
  6
CONTINUOUS
 62
     1
 10
-285.60362117835
 20
52.50101491465001
 30
0.0
 11
-289.60362117835
 21
52.50101491465001
 31
0.0
  0
LINE
  5
79
  8
LAYER_01
  6
CONTINUOUS
 62
     1
 10
-285.60362117835
 20
48.50101491465001
 30
0.0
 11
-285.60362117835
 21
52.50101491465001
 31
0.0
  0
LINE
  5
7A
  8
LAYER_01
  6
CONTINUOUS
 62
     1
 10
-281.60362117835
 20
48.50101491465001
 30
0.0
 11
-281.60362117835
 21
52.50101491465001
 31
0.0
  0
LINE
  5
7B
  8
LAYER_01
  6
CONTINUOUS
 62
     1
 10
-277.60362117835
 20
52.50101491465001
 30
0.0
 11
-281.60362117835
 21
52.50101491465001
 31
0.0
  0
LINE
  5
7C
  8
LAYER_01
  6
CONTINUOUS
 62
     1
 10
-277.60362117835
 20
48.50101491465001
 30
0.0
 11
-277.60362117835
 21
52.50101491465001
 31
0.0
  0
LINE
  5
7D
  8
LAYER_01
  6
CONTINUOUS
 62
     1
 10
-273.60362117835
 20
48.50101491465001
 30
0.0
 11
-273.60362117835
 21
52.50101491465001
 31
0.0
  0
LINE
  5
7E
  8
LAYER_01
  6
CONTINUOUS
 62
     1
 10
-269.60362117835
 20
52.50101491465001
 30
0.0
 11
-273.60362117835
 21
52.50101491465001
 31
0.0
  0
LINE
  5
7F
  8
LAYER_01
  6
CONTINUOUS
 62
     1
 10
-269.60362117835
 20
48.50101491465001
 30
0.0
 11
-269.60362117835
 21
52.50101491465001
 31
0.0
  0
LINE
  5
80
  8
LAYER_01
  6
CONTINUOUS
 62
     1
 10
-265.60362117835
 20
48.50101491465001
 30
0.0
 11
-265.60362117835
 21
52.50101491465001
 31
0.0
  0
LINE
  5
81
  8
LAYER_01
  6
CONTINUOUS
 62
     1
 10
-261.60362117835
 20
52.50101491465001
 30
0.0
 11
-265.60362117835
 21
52.50101491465001
 31
0.0
  0
LINE
  5
82
  8
LAYER_01
  6
CONTINUOUS
 62
     1
 10
-261.60362117835
 20
48.50101491465001
 30
0.0
 11
-261.60362117835
 21
52.50101491465001
 31
0.0
  0
LINE
  5
83
  8
LAYER_01
  6
CONTINUOUS
 62
     1
 10
-257.60362117835
 20
48.50101491465001
 30
0.0
 11
-257.60362117835
 21
52.50101491465001
 31
0.0
  0
LINE
  5
84
  8
LAYER_01
  6
CONTINUOUS
 62
     1
 10
-253.60362117835
 20
52.50101491465001
 30
0.0
 11
-257.60362117835
 21
52.50101491465001
 31
0.0
  0
LINE
  5
85
  8
LAYER_01
  6
CONTINUOUS
 62
     1
 10
-253.60362117835
 20
48.50101491465001
 30
0.0
 11
-253.60362117835
 21
52.50101491465001
 31
0.0
  0
LINE
  5
86
  8
LAYER_01
  6
CONTINUOUS
 62
     1
 10
-249.60362117835
 20
48.50101491465001
 30
0.0
 11
-249.60362117835
 21
52.50101491465001
 31
0.0
  0
LINE
  5
87
  8
LAYER_01
  6
CONTINUOUS
 62
     1
 10
-245.60362117835
 20
52.50101491465001
 30
0.0
 11
-249.60362117835
 21
52.50101491465001
 31
0.0
  0
LINE
  5
88
  8
LAYER_01
  6
CONTINUOUS
 62
     1
 10
-245.60362117835
 20
48.50101491465001
 30
0.0
 11
-245.60362117835
 21
52.50101491465001
 31
0.0
  0
LINE
  5
89
  8
LAYER_01
  6
CONTINUOUS
 62
     1
 10
-241.60362117835
 20
48.50101491465001
 30
0.0
 11
-241.60362117835
 21
52.50101491465001
 31
0.0
  0
LINE
  5
8A
  8
LAYER_01
  6
CONTINUOUS
 62
     1
 10
-237.60362117835
 20
52.50101491465001
 30
0.0
 11
-241.60362117835
 21
52.50101491465001
 31
0.0
  0
LINE
  5
8B
  8
LAYER_01
  6
CONTINUOUS
 62
     1
 10
-237.60362117835
 20
48.50101491465001
 30
0.0
 11
-237.60362117835
 21
52.50101491465001
 31
0.0
  0
LINE
  5
8C
  8
LAYER_01
  6
CONTINUOUS
 62
     1
 10
-233.60362117835
 20
48.50101491465001
 30
0.0
 11
-233.60362117835
 21
52.50101491465001
 31
0.0
  0
LINE
  5
8D
  8
LAYER_01
  6
CONTINUOUS
 62
     1
 10
-229.60362117835
 20
52.50101491465001
 30
0.0
 11
-233.60362117835
 21
52.50101491465001
 31
0.0
  0
LINE
  5
8E
  8
LAYER_01
  6
CONTINUOUS
 62
     1
 10
-229.60362117835
 20
48.50101491465001
 30
0.0
 11
-229.60362117835
 21
52.50101491465001
 31
0.0
  0
LINE
  5
8F
  8
LAYER_01
  6
CONTINUOUS
 62
     1
 10
-225.60362117835
 20
48.50101491465001
 30
0.0
 11
-225.60362117835
 21
52.50101491465001
 31
0.0
  0
LINE
  5
90
  8
LAYER_01
  6
CONTINUOUS
 62
     1
 10
-221.60362117835
 20
52.50101491465001
 30
0.0
 11
-225.60362117835
 21
52.50101491465001
 31
0.0
  0
LINE
  5
91
  8
LAYER_01
  6
CONTINUOUS
 62
     1
 10
-221.60362117835
 20
48.50101491465001
 30
0.0
 11
-221.60362117835
 21
52.50101491465001
 31
0.0
  0
LINE
  5
92
  8
LAYER_01
  6
CONTINUOUS
 62
     1
 10
-217.60362117835
 20
48.50101491465001
 30
0.0
 11
-217.60362117835
 21
52.50101491465001
 31
0.0
  0
LINE
  5
93
  8
LAYER_01
  6
CONTINUOUS
 62
     1
 10
-213.60362117835
 20
52.50101491465001
 30
0.0
 11
-217.60362117835
 21
52.50101491465001
 31
0.0
  0
LINE
  5
94
  8
LAYER_01
  6
CONTINUOUS
 62
     1
 10
-213.60362117835
 20
48.50101491465001
 30
0.0
 11
-213.60362117835
 21
52.50101491465001
 31
0.0
  0
LINE
  5
95
  8
LAYER_01
  6
CONTINUOUS
 62
     1
 10
-209.60362117835
 20
48.50101491465001
 30
0.0
 11
-209.60362117835
 21
52.50101491465001
 31
0.0
  0
LINE
  5
96
  8
LAYER_01
  6
CONTINUOUS
 62
     1
 10
-205.60362117835
 20
52.50101491465001
 30
0.0
 11
-209.60362117835
 21
52.50101491465001
 31
0.0
  0
LINE
  5
97
  8
LAYER_01
  6
CONTINUOUS
 62
     1
 10
-205.60362117835
 20
48.50101491465001
 30
0.0
 11
-205.60362117835
 21
52.50101491465001
 31
0.0
  0
LINE
  5
98
  8
LAYER_01
  6
CONTINUOUS
 62
     1
 10
-201.60362117835
 20
48.50101491465001
 30
0.0
 11
-201.60362117835
 21
52.50101491465001
 31
0.0
  0
LINE
  5
99
  8
LAYER_01
  6
CONTINUOUS
 62
     1
 10
-197.60362117835
 20
52.50101491465001
 30
0.0
 11
-201.60362117835
 21
52.50101491465001
 31
0.0
  0
LINE
  5
9A
  8
LAYER_01
  6
CONTINUOUS
 62
     1
 10
-197.60362117835
 20
48.50101491465001
 30
0.0
 11
-197.60362117835
 21
52.50101491465001
 31
0.0
  0
LINE
  5
9B
  8
LAYER_01
  6
CONTINUOUS
 62
     1
 10
-193.60362117835
 20
48.50101491465001
 30
0.0
 11
-193.60362117835
 21
52.50101491465001
 31
0.0
  0
LINE
  5
9C
  8
LAYER_01
  6
CONTINUOUS
 62
     1
 10
-189.60362117835
 20
52.50101491465001
 30
0.0
 11
-193.60362117835
 21
52.50101491465001
 31
0.0
  0
LINE
  5
9D
  8
LAYER_01
  6
CONTINUOUS
 62
     1
 10
-189.60362117835
 20
48.50101491465001
 30
0.0
 11
-189.60362117835
 21
52.50101491465001
 31
0.0
  0
LINE
  5
9E
  8
LAYER_01
  6
CONTINUOUS
 62
     1
 10
-185.60362117835
 20
48.50101491465001
 30
0.0
 11
-185.60362117835
 21
52.50101491465001
 31
0.0
  0
LINE
  5
9F
  8
LAYER_01
  6
CONTINUOUS
 62
     1
 10
-181.60362117835
 20
52.50101491465001
 30
0.0
 11
-185.60362117835
 21
52.50101491465001
 31
0.0
  0
LINE
  5
A0
  8
LAYER_01
  6
CONTINUOUS
 62
     1
 10
-181.60362117835
 20
48.50101491465001
 30
0.0
 11
-181.60362117835
 21
52.50101491465001
 31
0.0
  0
LINE
  5
A1
  8
LAYER_01
  6
CONTINUOUS
 62
     1
 10
-177.60362117835
 20
48.50101491465001
 30
0.0
 11
-177.60362117835
 21
52.50101491465001
 31
0.0
  0
LINE
  5
A2
  8
LAYER_01
  6
CONTINUOUS
 62
     1
 10
-173.60362117835
 20
52.50101491465001
 30
0.0
 11
-177.60362117835
 21
52.50101491465001
 31
0.0
  0
LINE
  5
A3
  8
LAYER_01
  6
CONTINUOUS
 62
     1
 10
-173.60362117835
 20
48.50101491465001
 30
0.0
 11
-173.60362117835
 21
52.50101491465001
 31
0.0
  0
LINE
  5
A4
  8
LAYER_01
  6
CONTINUOUS
 62
     1
 10
-169.60362117835
 20
48.50101491465001
 30
0.0
 11
-169.60362117835
 21
52.50101491465001
 31
0.0
  0
LINE
  5
A5
  8
LAYER_01
  6
CONTINUOUS
 62
     1
 10
-165.60362117835
 20
52.50101491465001
 30
0.0
 11
-169.60362117835
 21
52.50101491465001
 31
0.0
  0
LINE
  5
A6
  8
LAYER_01
  6
CONTINUOUS
 62
     1
 10
-165.60362117835
 20
48.50101491465001
 30
0.0
 11
-165.60362117835
 21
52.50101491465001
 31
0.0
  0
LINE
  5
A7
  8
LAYER_01
  6
CONTINUOUS
 62
     1
 10
-161.60362117835
 20
48.50101491465001
 30
0.0
 11
-161.60362117835
 21
52.50101491465001
 31
0.0
  0
LINE
  5
A8
  8
LAYER_01
  6
CONTINUOUS
 62
     1
 10
-157.60362117835
 20
52.50101491465001
 30
0.0
 11
-161.60362117835
 21
52.50101491465001
 31
0.0
  0
LINE
  5
A9
  8
LAYER_01
  6
CONTINUOUS
 62
     1
 10
-157.60362117835
 20
48.50101491465001
 30
0.0
 11
-157.60362117835
 21
52.50101491465001
 31
0.0
  0
LINE
  5
AA
  8
LAYER_01
  6
CONTINUOUS
 62
     1
 10
-153.60362117835
 20
48.50101491465001
 30
0.0
 11
-153.60362117835
 21
52.50101491465001
 31
0.0
  0
LINE
  5
AB
  8
LAYER_01
  6
CONTINUOUS
 62
     1
 10
-149.60362117835
 20
52.50101491465001
 30
0.0
 11
-153.60362117835
 21
52.50101491465001
 31
0.0
  0
LINE
  5
AC
  8
LAYER_01
  6
CONTINUOUS
 62
     1
 10
-149.60362117835
 20
48.50101491465001
 30
0.0
 11
-149.60362117835
 21
52.50101491465001
 31
0.0
  0
LINE
  5
AD
  8
LAYER_01
  6
CONTINUOUS
 62
     1
 10
-145.60362117835
 20
48.50101491465001
 30
0.0
 11
-145.60362117835
 21
52.50101491465001
 31
0.0
  0
LINE
  5
AE
  8
LAYER_01
  6
CONTINUOUS
 62
     1
 10
-141.60362117835
 20
52.50101491465001
 30
0.0
 11
-145.60362117835
 21
52.50101491465001
 31
0.0
  0
LINE
  5
AF
  8
LAYER_01
  6
CONTINUOUS
 62
     1
 10
-141.60362117835
 20
48.50101491465001
 30
0.0
 11
-141.60362117835
 21
52.50101491465001
 31
0.0
  0
LINE
  5
B0
  8
LAYER_01
  6
CONTINUOUS
 62
     1
 10
-137.60362117835
 20
-43.49898508534999
 30
0.0
 11
-137.60362117835
 21
-47.49898508534999
 31
0.0
  0
LINE
  5
B1
  8
LAYER_01
  6
CONTINUOUS
 62
     1
 10
-137.60362117835
 20
-47.49898508534999
 30
0.0
 11
-133.60362117835
 21
-47.49898508534999
 31
0.0
  0
LINE
  5
B2
  8
LAYER_01
  6
CONTINUOUS
 62
     1
 10
-133.60362117835
 20
-47.49898508534999
 30
0.0
 11
-133.60362117835
 21
-43.49898508534999
 31
0.0
  0
LINE
  5
B3
  8
LAYER_01
  6
CONTINUOUS
 62
     1
 10
-137.60362117835
 20
48.50101491465001
 30
0.0
 11
-137.60362117835
 21
52.50101491465001
 31
0.0
  0
LINE
  5
B4
  8
LAYER_01
  6
CONTINUOUS
 62
     1
 10
-133.60362117835
 20
52.50101491465001
 30
0.0
 11
-137.60362117835
 21
52.50101491465001
 31
0.0
  0
LINE
  5
B5
  8
LAYER_01
  6
CONTINUOUS
 62
     1
 10
-133.60362117835
 20
48.50101491465001
 30
0.0
 11
-133.60362117835
 21
52.50101491465001
 31
0.0
  0
LINE
  5
B6
  8
LAYER_01
  6
CONTINUOUS
 62
     1
 10
-129.60362117835
 20
-43.49898508534999
 30
0.0
 11
-129.60362117835
 21
-47.49898508534999
 31
0.0
  0
LINE
  5
B7
  8
LAYER_01
  6
CONTINUOUS
 62
     1
 10
-129.60362117835
 20
-47.49898508534999
 30
0.0
 11
-125.60362117835
 21
-47.49898508534999
 31
0.0
  0
LINE
  5
B8
  8
LAYER_01
  6
CONTINUOUS
 62
     1
 10
-125.60362117835
 20
-47.49898508534999
 30
0.0
 11
-125.60362117835
 21
-43.49898508534999
 31
0.0
  0
LINE
  5
B9
  8
LAYER_01
  6
CONTINUOUS
 62
     1
 10
-129.60362117835
 20
48.50101491465001
 30
0.0
 11
-129.60362117835
 21
52.50101491465001
 31
0.0
  0
LINE
  5
BA
  8
LAYER_01
  6
CONTINUOUS
 62
     1
 10
-125.60362117835
 20
52.50101491465001
 30
0.0
 11
-129.60362117835
 21
52.50101491465001
 31
0.0
  0
LINE
  5
BB
  8
LAYER_01
  6
CONTINUOUS
 62
     1
 10
-125.60362117835
 20
48.50101491465001
 30
0.0
 11
-125.60362117835
 21
52.50101491465001
 31
0.0
  0
LINE
  5
BC
  8
LAYER_01
  6
CONTINUOUS
 62
     1
 10
-121.60362117835
 20
-43.49898508534999
 30
0.0
 11
-121.60362117835
 21
-47.49898508534999
 31
0.0
  0
LINE
  5
BD
  8
LAYER_01
  6
CONTINUOUS
 62
     1
 10
-121.60362117835
 20
-47.49898508534999
 30
0.0
 11
-117.60362117835
 21
-47.49898508534999
 31
0.0
  0
LINE
  5
BE
  8
LAYER_01
  6
CONTINUOUS
 62
     1
 10
-117.60362117835
 20
-47.49898508534999
 30
0.0
 11
-117.60362117835
 21
-43.49898508534999
 31
0.0
  0
LINE
  5
BF
  8
LAYER_01
  6
CONTINUOUS
 62
     1
 10
-121.60362117835
 20
48.50101491465001
 30
0.0
 11
-121.60362117835
 21
52.50101491465001
 31
0.0
  0
LINE
  5
C0
  8
LAYER_01
  6
CONTINUOUS
 62
     1
 10
-117.60362117835
 20
52.50101491465001
 30
0.0
 11
-121.60362117835
 21
52.50101491465001
 31
0.0
  0
LINE
  5
C1
  8
LAYER_01
  6
CONTINUOUS
 62
     1
 10
-117.60362117835
 20
48.50101491465001
 30
0.0
 11
-117.60362117835
 21
52.50101491465001
 31
0.0
  0
LINE
  5
C2
  8
LAYER_01
  6
CONTINUOUS
 62
     1
 10
-113.60362117835
 20
-43.49898508534999
 30
0.0
 11
-113.60362117835
 21
-47.49898508534999
 31
0.0
  0
LINE
  5
C3
  8
LAYER_01
  6
CONTINUOUS
 62
     1
 10
-113.60362117835
 20
-47.49898508534999
 30
0.0
 11
-109.60362117835
 21
-47.49898508534999
 31
0.0
  0
LINE
  5
C4
  8
LAYER_01
  6
CONTINUOUS
 62
     1
 10
-109.60362117835
 20
-47.49898508534999
 30
0.0
 11
-109.60362117835
 21
-43.48582193474999
 31
0.0
  0
LINE
  5
C5
  8
LAYER_01
  6
CONTINUOUS
 62
     1
 10
-113.60362117835
 20
48.50101491465001
 30
0.0
 11
-113.60362117835
 21
52.50101491465001
 31
0.0
  0
LINE
  5
C6
  8
LAYER_01
  6
CONTINUOUS
 62
     1
 10
-109.60362117835
 20
52.50101491465001
 30
0.0
 11
-113.60362117835
 21
52.50101491465001
 31
0.0
  0
LINE
  5
C7
  8
LAYER_01
  6
CONTINUOUS
 62
     1
 10
-109.60362117835
 20
48.50101491465001
 30
0.0
 11
-109.60362117835
 21
52.50101491465001
 31
0.0
  0
LINE
  5
C8
  8
LAYER_01
  6
CONTINUOUS
 62
     1
 10
-105.60362117835
 20
-43.48582193474999
 30
0.0
 11
-105.60362117835
 21
-47.53318213985
 31
0.0
  0
LINE
  5
C9
  8
LAYER_01
  6
CONTINUOUS
 62
     1
 10
-105.60362117835
 20
-47.53318213985
 30
0.0
 11
-101.60362117835
 21
-47.53318213985
 31
0.0
  0
LINE
  5
CA
  8
LAYER_01
  6
CONTINUOUS
 62
     1
 10
-101.60362117835
 20
-47.53318213985
 30
0.0
 11
-101.60362117835
 21
-43.49898508534999
 31
0.0
  0
LINE
  5
CB
  8
LAYER_01
  6
CONTINUOUS
 62
     1
 10
-105.60362117835
 20
48.50101491465001
 30
0.0
 11
-105.60362117835
 21
52.50101491465001
 31
0.0
  0
LINE
  5
CC
  8
LAYER_01
  6
CONTINUOUS
 62
     1
 10
-101.60362117835
 20
52.50101491465001
 30
0.0
 11
-105.60362117835
 21
52.50101491465001
 31
0.0
  0
LINE
  5
CD
  8
LAYER_01
  6
CONTINUOUS
 62
     1
 10
-101.60362117835
 20
48.50101491465001
 30
0.0
 11
-101.60362117835
 21
52.50101491465001
 31
0.0
  0
LINE
  5
CE
  8
LAYER_01
  6
CONTINUOUS
 62
     1
 10
-137.60362117835
 20
-43.49898508534999
 30
0.0
 11
-141.60362117835
 21
-43.49898508534999
 31
0.0
  0
LINE
  5
CF
  8
LAYER_01
  6
CONTINUOUS
 62
     1
 10
-129.60362117835
 20
-43.49898508534999
 30
0.0
 11
-133.60362117835
 21
-43.49898508534999
 31
0.0
  0
LINE
  5
D0
  8
LAYER_01
  6
CONTINUOUS
 62
     1
 10
-121.60362117835
 20
-43.49898508534999
 30
0.0
 11
-125.60362117835
 21
-43.49898508534999
 31
0.0
  0
LINE
  5
D1
  8
LAYER_01
  6
CONTINUOUS
 62
     1
 10
-113.60362117835
 20
-43.49898508534999
 30
0.0
 11
-117.60362117835
 21
-43.49898508534999
 31
0.0
  0
LINE
  5
D2
  8
LAYER_01
  6
CONTINUOUS
 62
     1
 10
-105.60362117835
 20
-43.48582193474999
 30
0.0
 11
-109.60362117835
 21
-43.48582193474999
 31
0.0
  0
LINE
  5
D3
  8
LAYER_01
  6
CONTINUOUS
 62
     1
 10
-97.60362117835
 20
-43.49898508534999
 30
0.0
 11
-101.60362117835
 21
-43.49898508534999
 31
0.0
  0
LINE
  5
D4
  8
LAYER_01
  6
CONTINUOUS
 62
     1
 10
-97.60362117835
 20
48.50101491465001
 30
0.0
 11
-101.60362117835
 21
48.50101491465001
 31
0.0
  0
LINE
  5
D5
  8
LAYER_01
  6
CONTINUOUS
 62
     1
 10
-105.60362117835
 20
48.50101491465001
 30
0.0
 11
-109.60362117835
 21
48.50101491465001
 31
0.0
  0
LINE
  5
D6
  8
LAYER_01
  6
CONTINUOUS
 62
     1
 10
-113.60362117835
 20
48.50101491465001
 30
0.0
 11
-117.60362117835
 21
48.50101491465001
 31
0.0
  0
LINE
  5
D7
  8
LAYER_01
  6
CONTINUOUS
 62
     1
 10
-121.60362117835
 20
48.50101491465001
 30
0.0
 11
-125.60362117835
 21
48.50101491465001
 31
0.0
  0
LINE
  5
D8
  8
LAYER_01
  6
CONTINUOUS
 62
     1
 10
-129.60362117835
 20
48.50101491465001
 30
0.0
 11
-133.60362117835
 21
48.50101491465001
 31
0.0
  0
LINE
  5
D9
  8
LAYER_01
  6
CONTINUOUS
 62
     1
 10
-137.60362117835
 20
48.50101491465001
 30
0.0
 11
-141.60362117835
 21
48.50101491465001
 31
0.0
  0
LINE
  5
DA
  8
LAYER_01
  6
CONTINUOUS
 62
     1
 10
-145.60362117835
 20
48.50101491465001
 30
0.0
 11
-149.60362117835
 21
48.50101491465001
 31
0.0
  0
LINE
  5
DB
  8
LAYER_01
  6
CONTINUOUS
 62
     1
 10
-153.60362117835
 20
48.50101491465001
 30
0.0
 11
-157.60362117835
 21
48.50101491465001
 31
0.0
  0
LINE
  5
DC
  8
LAYER_01
  6
CONTINUOUS
 62
     1
 10
-161.60362117835
 20
48.50101491465001
 30
0.0
 11
-165.60362117835
 21
48.50101491465001
 31
0.0
  0
LINE
  5
DD
  8
LAYER_01
  6
CONTINUOUS
 62
     1
 10
-169.60362117835
 20
48.50101491465001
 30
0.0
 11
-173.60362117835
 21
48.50101491465001
 31
0.0
  0
LINE
  5
DE
  8
LAYER_01
  6
CONTINUOUS
 62
     1
 10
-177.60362117835
 20
48.50101491465001
 30
0.0
 11
-181.60362117835
 21
48.50101491465001
 31
0.0
  0
LINE
  5
DF
  8
LAYER_01
  6
CONTINUOUS
 62
     1
 10
-185.60362117835
 20
48.50101491465001
 30
0.0
 11
-189.60362117835
 21
48.50101491465001
 31
0.0
  0
LINE
  5
E0
  8
LAYER_01
  6
CONTINUOUS
 62
     1
 10
-193.60362117835
 20
48.50101491465001
 30
0.0
 11
-197.60362117835
 21
48.50101491465001
 31
0.0
  0
LINE
  5
E1
  8
LAYER_01
  6
CONTINUOUS
 62
     1
 10
-201.60362117835
 20
48.50101491465001
 30
0.0
 11
-205.60362117835
 21
48.50101491465001
 31
0.0
  0
LINE
  5
E2
  8
LAYER_01
  6
CONTINUOUS
 62
     1
 10
-209.60362117835
 20
48.50101491465001
 30
0.0
 11
-213.60362117835
 21
48.50101491465001
 31
0.0
  0
LINE
  5
E3
  8
LAYER_01
  6
CONTINUOUS
 62
     1
 10
-217.60362117835
 20
48.50101491465001
 30
0.0
 11
-221.60362117835
 21
48.50101491465001
 31
0.0
  0
LINE
  5
E4
  8
LAYER_01
  6
CONTINUOUS
 62
     1
 10
-225.60362117835
 20
48.50101491465001
 30
0.0
 11
-229.60362117835
 21
48.50101491465001
 31
0.0
  0
LINE
  5
E5
  8
LAYER_01
  6
CONTINUOUS
 62
     1
 10
-233.60362117835
 20
48.50101491465001
 30
0.0
 11
-237.60362117835
 21
48.50101491465001
 31
0.0
  0
LINE
  5
E6
  8
LAYER_01
  6
CONTINUOUS
 62
     1
 10
-241.60362117835
 20
48.50101491465001
 30
0.0
 11
-245.60362117835
 21
48.50101491465001
 31
0.0
  0
LINE
  5
E7
  8
LAYER_01
  6
CONTINUOUS
 62
     1
 10
-249.60362117835
 20
48.50101491465001
 30
0.0
 11
-253.60362117835
 21
48.50101491465001
 31
0.0
  0
LINE
  5
E8
  8
LAYER_01
  6
CONTINUOUS
 62
     1
 10
-257.60362117835
 20
48.50101491465001
 30
0.0
 11
-261.60362117835
 21
48.50101491465001
 31
0.0
  0
LINE
  5
E9
  8
LAYER_01
  6
CONTINUOUS
 62
     1
 10
-265.60362117835
 20
48.50101491465001
 30
0.0
 11
-269.60362117835
 21
48.50101491465001
 31
0.0
  0
LINE
  5
EA
  8
LAYER_01
  6
CONTINUOUS
 62
     1
 10
-273.60362117835
 20
48.50101491465001
 30
0.0
 11
-277.60362117835
 21
48.50101491465001
 31
0.0
  0
LINE
  5
EB
  8
LAYER_01
  6
CONTINUOUS
 62
     1
 10
-281.60362117835
 20
48.50101491465001
 30
0.0
 11
-285.60362117835
 21
48.50101491465001
 31
0.0
  0
LINE
  5
EC
  8
LAYER_01
  6
CONTINUOUS
 62
     1
 10
-289.60362117835
 20
48.50101491465001
 30
0.0
 11
-293.60362117835
 21
48.50101491465001
 31
0.0
  0
LINE
  5
ED
  8
LAYER_01
  6
CONTINUOUS
 62
     1
 10
-297.60362117835
 20
48.50101491465001
 30
0.0
 11
-301.60362117835
 21
48.50101491465001
 31
0.0
  0
LINE
  5
EE
  8
LAYER_01
  6
CONTINUOUS
 62
     1
 10
-301.60362117835
 20
0.969250531450008
 30
0.0
 11
-301.60362117835
 21
-43.49898508534999
 31
0.0
  0
LINE
  5
EF
  8
LAYER_01
  6
CONTINUOUS
 62
     1
 10
-301.30362117835
 20
1.269250531450008
 30
0.0
 11
-300.09068698555
 21
1.269250531450008
 31
0.0
  0
LINE
  5
F0
  8
LAYER_01
  6
CONTINUOUS
 62
     1
 10
-297.60362117835
 20
-43.49898508534999
 30
0.0
 11
-297.60362117835
 21
-24.49898508534999
 31
0.0
  0
LINE
  5
F1
  8
LAYER_01
  6
CONTINUOUS
 62
     1
 10
-297.60362117835
 20
48.50101491465001
 30
0.0
 11
-297.60362117835
 21
29.50101491465001
 31
0.0
  0
LINE
  5
F2
  8
LAYER_01
  6
CONTINUOUS
 62
     1
 10
-301.30362117835
 20
3.732779297850008
 30
0.0
 11
-300.09068698555
 21
3.732779297850008
 31
0.0
  0
LINE
  5
F3
  8
LAYER_01
  6
CONTINUOUS
 62
     1
 10
-293.60362117835
 20
-43.49898508534999
 30
0.0
 11
-293.60362117835
 21
-24.49898508534999
 31
0.0
  0
LINE
  5
F4
  8
LAYER_01
  6
CONTINUOUS
 62
     1
 10
-97.60362117835
 20
-43.49898508534999
 30
0.0
 11
-97.60362117835
 21
48.50101491465001
 31
0.0
  0
LINE
  5
F5
  8
LAYER_01
  6
CONTINUOUS
 62
     1
 10
-293.60362117835
 20
48.50101491465001
 30
0.0
 11
-293.60362117835
 21
29.50101491465001
 31
0.0
  0
LINE
  5
F6
  8
LAYER_01
  6
CONTINUOUS
 62
     1
 10
-291.60362117835
 20
46.59440099085
 30
0.0
 11
-291.60362117835
 21
4.501014914650008
 31
0.0
  0
LINE
  5
F7
  8
LAYER_01
  6
CONTINUOUS
 62
     1
 10
-291.60362117835
 20
-41.59237116164999
 30
0.0
 11
-291.60362117835
 21
0.501014914650008
 31
0.0
  0
LINE
  5
F8
  8
LAYER_01
  6
CONTINUOUS
 62
     1
 10
-289.60362117835
 20
-20.49898508534999
 30
0.0
 11
-289.60362117835
 21
25.50101491465001
 31
0.0
  0
LINE
  5
F9
  8
LAYER_01
  6
CONTINUOUS
 62
     1
 10
-289.60362117835
 20
-43.49898508534999
 30
0.0
 11
-289.60362117835
 21
-24.49898508534999
 31
0.0
  0
LINE
  5
FA
  8
LAYER_01
  6
CONTINUOUS
 62
     1
 10
-289.60362117835
 20
48.50101491465001
 30
0.0
 11
-289.60362117835
 21
29.50101491465001
 31
0.0
  0
LINE
  5
FB
  8
LAYER_01
  6
CONTINUOUS
 62
     1
 10
-287.60362117835
 20
-45.49898508534999
 30
0.0
 11
-287.60362117835
 21
0.501014914650008
 31
0.0
  0
LINE
  5
FC
  8
LAYER_01
  6
CONTINUOUS
 62
     1
 10
-287.60362117835
 20
50.50101491465001
 30
0.0
 11
-287.60362117835
 21
4.501014914650008
 31
0.0
  0
LINE
  5
FD
  8
LAYER_01
  6
CONTINUOUS
 62
     1
 10
-285.60362117835
 20
-43.49898508534999
 30
0.0
 11
-285.60362117835
 21
-24.49898508534999
 31
0.0
  0
LINE
  5
FE
  8
LAYER_01
  6
CONTINUOUS
 62
     1
 10
-285.60362117835
 20
-20.49898508534999
 30
0.0
 11
-285.60362117835
 21
25.50101491465001
 31
0.0
  0
LINE
  5
FF
  8
LAYER_01
  6
CONTINUOUS
 62
     1
 10
-285.60362117835
 20
48.50101491465001
 30
0.0
 11
-285.60362117835
 21
29.50101491465001
 31
0.0
  0
LINE
  5
100
  8
LAYER_01
  6
CONTINUOUS
 62
     1
 10
-283.60362117835
 20
46.59440099085
 30
0.0
 11
-283.60362117835
 21
4.501014914650008
 31
0.0
  0
LINE
  5
101
  8
LAYER_01
  6
CONTINUOUS
 62
     1
 10
-283.60362117835
 20
-41.59237116164999
 30
0.0
 11
-283.60362117835
 21
0.501014914650008
 31
0.0
  0
LINE
  5
102
  8
LAYER_01
  6
CONTINUOUS
 62
     1
 10
-281.60362117835
 20
-20.49898508534999
 30
0.0
 11
-281.60362117835
 21
25.50101491465001
 31
0.0
  0
LINE
  5
103
  8
LAYER_01
  6
CONTINUOUS
 62
     1
 10
-281.60362117835
 20
-43.49898508534999
 30
0.0
 11
-281.60362117835
 21
-24.49898508534999
 31
0.0
  0
LINE
  5
104
  8
LAYER_01
  6
CONTINUOUS
 62
     1
 10
-281.60362117835
 20
48.50101491465001
 30
0.0
 11
-281.60362117835
 21
29.50101491465001
 31
0.0
  0
LINE
  5
105
  8
LAYER_01
  6
CONTINUOUS
 62
     1
 10
-279.60362117835
 20
-45.49898508534999
 30
0.0
 11
-279.60362117835
 21
0.501014914650008
 31
0.0
  0
LINE
  5
106
  8
LAYER_01
  6
CONTINUOUS
 62
     1
 10
-279.60362117835
 20
50.50101491465001
 30
0.0
 11
-279.60362117835
 21
4.501014914650008
 31
0.0
  0
LINE
  5
107
  8
LAYER_01
  6
CONTINUOUS
 62
     1
 10
-277.60362117835
 20
-43.49898508534999
 30
0.0
 11
-277.60362117835
 21
-24.49898508534999
 31
0.0
  0
LINE
  5
108
  8
LAYER_01
  6
CONTINUOUS
 62
     1
 10
-277.60362117835
 20
-20.49898508534999
 30
0.0
 11
-277.60362117835
 21
25.50101491465001
 31
0.0
  0
LINE
  5
109
  8
LAYER_01
  6
CONTINUOUS
 62
     1
 10
-277.60362117835
 20
48.50101491465001
 30
0.0
 11
-277.60362117835
 21
29.50101491465001
 31
0.0
  0
LINE
  5
10A
  8
LAYER_01
  6
CONTINUOUS
 62
     1
 10
-275.60362117835
 20
46.59440099085
 30
0.0
 11
-275.60362117835
 21
4.501014914650008
 31
0.0
  0
LINE
  5
10B
  8
LAYER_01
  6
CONTINUOUS
 62
     1
 10
-275.60362117835
 20
-41.59237116164999
 30
0.0
 11
-275.60362117835
 21
0.501014914650008
 31
0.0
  0
LINE
  5
10C
  8
LAYER_01
  6
CONTINUOUS
 62
     1
 10
-273.60362117835
 20
-20.49898508534999
 30
0.0
 11
-273.60362117835
 21
25.50101491465001
 31
0.0
  0
LINE
  5
10D
  8
LAYER_01
  6
CONTINUOUS
 62
     1
 10
-273.60362117835
 20
-43.49898508534999
 30
0.0
 11
-273.60362117835
 21
-24.49898508534999
 31
0.0
  0
LINE
  5
10E
  8
LAYER_01
  6
CONTINUOUS
 62
     1
 10
-273.60362117835
 20
48.50101491465001
 30
0.0
 11
-273.60362117835
 21
29.50101491465001
 31
0.0
  0
LINE
  5
10F
  8
LAYER_01
  6
CONTINUOUS
 62
     1
 10
-271.60362117835
 20
-45.49898508534999
 30
0.0
 11
-271.60362117835
 21
0.501014914650008
 31
0.0
  0
LINE
  5
110
  8
LAYER_01
  6
CONTINUOUS
 62
     1
 10
-271.60362117835
 20
50.50101491465001
 30
0.0
 11
-271.60362117835
 21
4.501014914650008
 31
0.0
  0
LINE
  5
111
  8
LAYER_01
  6
CONTINUOUS
 62
     1
 10
-269.60362117835
 20
-43.49898508534999
 30
0.0
 11
-269.60362117835
 21
-24.49898508534999
 31
0.0
  0
LINE
  5
112
  8
LAYER_01
  6
CONTINUOUS
 62
     1
 10
-269.60362117835
 20
-20.49898508534999
 30
0.0
 11
-269.60362117835
 21
25.50101491465001
 31
0.0
  0
LINE
  5
113
  8
LAYER_01
  6
CONTINUOUS
 62
     1
 10
-269.60362117835
 20
48.50101491465001
 30
0.0
 11
-269.60362117835
 21
29.50101491465001
 31
0.0
  0
LINE
  5
114
  8
LAYER_01
  6
CONTINUOUS
 62
     1
 10
-267.60362117835
 20
46.59440099085
 30
0.0
 11
-267.60362117835
 21
4.501014914650008
 31
0.0
  0
LINE
  5
115
  8
LAYER_01
  6
CONTINUOUS
 62
     1
 10
-267.60362117835
 20
-41.59237116164999
 30
0.0
 11
-267.60362117835
 21
0.501014914650008
 31
0.0
  0
LINE
  5
116
  8
LAYER_01
  6
CONTINUOUS
 62
     1
 10
-265.60362117835
 20
-20.49898508534999
 30
0.0
 11
-265.60362117835
 21
25.50101491465001
 31
0.0
  0
LINE
  5
117
  8
LAYER_01
  6
CONTINUOUS
 62
     1
 10
-265.60362117835
 20
-43.49898508534999
 30
0.0
 11
-265.60362117835
 21
-24.49898508534999
 31
0.0
  0
LINE
  5
118
  8
LAYER_01
  6
CONTINUOUS
 62
     1
 10
-265.60362117835
 20
48.50101491465001
 30
0.0
 11
-265.60362117835
 21
29.50101491465001
 31
0.0
  0
LINE
  5
119
  8
LAYER_01
  6
CONTINUOUS
 62
     1
 10
-263.60362117835
 20
-45.49898508534999
 30
0.0
 11
-263.60362117835
 21
0.501014914650008
 31
0.0
  0
LINE
  5
11A
  8
LAYER_01
  6
CONTINUOUS
 62
     1
 10
-263.60362117835
 20
50.50101491465001
 30
0.0
 11
-263.60362117835
 21
4.501014914650008
 31
0.0
  0
LINE
  5
11B
  8
LAYER_01
  6
CONTINUOUS
 62
     1
 10
-261.60362117835
 20
-43.49898508534999
 30
0.0
 11
-261.60362117835
 21
-24.49898508534999
 31
0.0
  0
LINE
  5
11C
  8
LAYER_01
  6
CONTINUOUS
 62
     1
 10
-261.60362117835
 20
-20.49898508534999
 30
0.0
 11
-261.60362117835
 21
25.50101491465001
 31
0.0
  0
LINE
  5
11D
  8
LAYER_01
  6
CONTINUOUS
 62
     1
 10
-261.60362117835
 20
48.50101491465001
 30
0.0
 11
-261.60362117835
 21
29.50101491465001
 31
0.0
  0
LINE
  5
11E
  8
LAYER_01
  6
CONTINUOUS
 62
     1
 10
-259.60362117835
 20
46.59440099085
 30
0.0
 11
-259.60362117835
 21
4.501014914650008
 31
0.0
  0
LINE
  5
11F
  8
LAYER_01
  6
CONTINUOUS
 62
     1
 10
-259.60362117835
 20
-41.59237116164999
 30
0.0
 11
-259.60362117835
 21
0.501014914650008
 31
0.0
  0
LINE
  5
120
  8
LAYER_01
  6
CONTINUOUS
 62
     1
 10
-257.60362117835
 20
-20.49898508534999
 30
0.0
 11
-257.60362117835
 21
25.50101491465001
 31
0.0
  0
LINE
  5
121
  8
LAYER_01
  6
CONTINUOUS
 62
     1
 10
-257.60362117835
 20
-43.49898508534999
 30
0.0
 11
-257.60362117835
 21
-24.49898508534999
 31
0.0
  0
LINE
  5
122
  8
LAYER_01
  6
CONTINUOUS
 62
     1
 10
-257.60362117835
 20
48.50101491465001
 30
0.0
 11
-257.60362117835
 21
29.50101491465001
 31
0.0
  0
LINE
  5
123
  8
LAYER_01
  6
CONTINUOUS
 62
     1
 10
-255.60362117835
 20
-45.49898508534999
 30
0.0
 11
-255.60362117835
 21
0.501014914650008
 31
0.0
  0
LINE
  5
124
  8
LAYER_01
  6
CONTINUOUS
 62
     1
 10
-255.60362117835
 20
50.50101491465001
 30
0.0
 11
-255.60362117835
 21
4.501014914650008
 31
0.0
  0
LINE
  5
125
  8
LAYER_01
  6
CONTINUOUS
 62
     1
 10
-253.60362117835
 20
-43.49898508534999
 30
0.0
 11
-253.60362117835
 21
-24.49898508534999
 31
0.0
  0
LINE
  5
126
  8
LAYER_01
  6
CONTINUOUS
 62
     1
 10
-253.60362117835
 20
-20.49898508534999
 30
0.0
 11
-253.60362117835
 21
25.50101491465001
 31
0.0
  0
LINE
  5
127
  8
LAYER_01
  6
CONTINUOUS
 62
     1
 10
-253.60362117835
 20
48.50101491465001
 30
0.0
 11
-253.60362117835
 21
29.50101491465001
 31
0.0
  0
LINE
  5
128
  8
LAYER_01
  6
CONTINUOUS
 62
     1
 10
-251.60362117835
 20
46.59440099085
 30
0.0
 11
-251.60362117835
 21
4.501014914650008
 31
0.0
  0
LINE
  5
129
  8
LAYER_01
  6
CONTINUOUS
 62
     1
 10
-251.60362117835
 20
-41.59237116164999
 30
0.0
 11
-251.60362117835
 21
0.501014914650008
 31
0.0
  0
LINE
  5
12A
  8
LAYER_01
  6
CONTINUOUS
 62
     1
 10
-249.60362117835
 20
-20.49898508534999
 30
0.0
 11
-249.60362117835
 21
25.50101491465001
 31
0.0
  0
LINE
  5
12B
  8
LAYER_01
  6
CONTINUOUS
 62
     1
 10
-249.60362117835
 20
-43.49898508534999
 30
0.0
 11
-249.60362117835
 21
-24.49898508534999
 31
0.0
  0
LINE
  5
12C
  8
LAYER_01
  6
CONTINUOUS
 62
     1
 10
-249.60362117835
 20
48.50101491465001
 30
0.0
 11
-249.60362117835
 21
29.50101491465001
 31
0.0
  0
LINE
  5
12D
  8
LAYER_01
  6
CONTINUOUS
 62
     1
 10
-247.60362117835
 20
-45.49898508534999
 30
0.0
 11
-247.60362117835
 21
0.501014914650008
 31
0.0
  0
LINE
  5
12E
  8
LAYER_01
  6
CONTINUOUS
 62
     1
 10
-247.60362117835
 20
50.50101491465001
 30
0.0
 11
-247.60362117835
 21
4.501014914650008
 31
0.0
  0
LINE
  5
12F
  8
LAYER_01
  6
CONTINUOUS
 62
     1
 10
-245.60362117835
 20
-43.49898508534999
 30
0.0
 11
-245.60362117835
 21
-24.49898508534999
 31
0.0
  0
LINE
  5
130
  8
LAYER_01
  6
CONTINUOUS
 62
     1
 10
-245.60362117835
 20
-20.49898508534999
 30
0.0
 11
-245.60362117835
 21
25.50101491465001
 31
0.0
  0
LINE
  5
131
  8
LAYER_01
  6
CONTINUOUS
 62
     1
 10
-245.60362117835
 20
48.50101491465001
 30
0.0
 11
-245.60362117835
 21
29.50101491465001
 31
0.0
  0
LINE
  5
132
  8
LAYER_01
  6
CONTINUOUS
 62
     1
 10
-243.60362117835
 20
46.59440099085
 30
0.0
 11
-243.60362117835
 21
4.501014914650008
 31
0.0
  0
LINE
  5
133
  8
LAYER_01
  6
CONTINUOUS
 62
     1
 10
-243.60362117835
 20
-41.59237116164999
 30
0.0
 11
-243.60362117835
 21
0.501014914650008
 31
0.0
  0
LINE
  5
134
  8
LAYER_01
  6
CONTINUOUS
 62
     1
 10
-241.60362117835
 20
-20.49898508534999
 30
0.0
 11
-241.60362117835
 21
25.50101491465001
 31
0.0
  0
LINE
  5
135
  8
LAYER_01
  6
CONTINUOUS
 62
     1
 10
-241.60362117835
 20
-43.49898508534999
 30
0.0
 11
-241.60362117835
 21
-24.49898508534999
 31
0.0
  0
LINE
  5
136
  8
LAYER_01
  6
CONTINUOUS
 62
     1
 10
-241.60362117835
 20
48.50101491465001
 30
0.0
 11
-241.60362117835
 21
29.50101491465001
 31
0.0
  0
LINE
  5
137
  8
LAYER_01
  6
CONTINUOUS
 62
     1
 10
-239.60362117835
 20
-45.49898508534999
 30
0.0
 11
-239.60362117835
 21
0.501014914650008
 31
0.0
  0
LINE
  5
138
  8
LAYER_01
  6
CONTINUOUS
 62
     1
 10
-239.60362117835
 20
50.50101491465001
 30
0.0
 11
-239.60362117835
 21
4.501014914650008
 31
0.0
  0
LINE
  5
139
  8
LAYER_01
  6
CONTINUOUS
 62
     1
 10
-237.60362117835
 20
-43.49898508534999
 30
0.0
 11
-237.60362117835
 21
-24.49898508534999
 31
0.0
  0
LINE
  5
13A
  8
LAYER_01
  6
CONTINUOUS
 62
     1
 10
-237.60362117835
 20
-20.49898508534999
 30
0.0
 11
-237.60362117835
 21
25.50101491465001
 31
0.0
  0
LINE
  5
13B
  8
LAYER_01
  6
CONTINUOUS
 62
     1
 10
-237.60362117835
 20
48.50101491465001
 30
0.0
 11
-237.60362117835
 21
29.50101491465001
 31
0.0
  0
LINE
  5
13C
  8
LAYER_01
  6
CONTINUOUS
 62
     1
 10
-235.60362117835
 20
46.59440099085
 30
0.0
 11
-235.60362117835
 21
4.501014914650008
 31
0.0
  0
LINE
  5
13D
  8
LAYER_01
  6
CONTINUOUS
 62
     1
 10
-235.60362117835
 20
-41.59237116164999
 30
0.0
 11
-235.60362117835
 21
0.501014914650008
 31
0.0
  0
LINE
  5
13E
  8
LAYER_01
  6
CONTINUOUS
 62
     1
 10
-233.60362117835
 20
-20.49898508534999
 30
0.0
 11
-233.60362117835
 21
25.50101491465001
 31
0.0
  0
LINE
  5
13F
  8
LAYER_01
  6
CONTINUOUS
 62
     1
 10
-233.60362117835
 20
-43.49898508534999
 30
0.0
 11
-233.60362117835
 21
-24.49898508534999
 31
0.0
  0
LINE
  5
140
  8
LAYER_01
  6
CONTINUOUS
 62
     1
 10
-233.60362117835
 20
48.50101491465001
 30
0.0
 11
-233.60362117835
 21
29.50101491465001
 31
0.0
  0
LINE
  5
141
  8
LAYER_01
  6
CONTINUOUS
 62
     1
 10
-231.60362117835
 20
-45.49898508534999
 30
0.0
 11
-231.60362117835
 21
0.501014914650008
 31
0.0
  0
LINE
  5
142
  8
LAYER_01
  6
CONTINUOUS
 62
     1
 10
-231.60362117835
 20
50.50101491465001
 30
0.0
 11
-231.60362117835
 21
4.501014914650008
 31
0.0
  0
LINE
  5
143
  8
LAYER_01
  6
CONTINUOUS
 62
     1
 10
-229.60362117835
 20
-43.49898508534999
 30
0.0
 11
-229.60362117835
 21
-24.49898508534999
 31
0.0
  0
LINE
  5
144
  8
LAYER_01
  6
CONTINUOUS
 62
     1
 10
-229.60362117835
 20
-20.49898508534999
 30
0.0
 11
-229.60362117835
 21
25.50101491465001
 31
0.0
  0
LINE
  5
145
  8
LAYER_01
  6
CONTINUOUS
 62
     1
 10
-229.60362117835
 20
48.50101491465001
 30
0.0
 11
-229.60362117835
 21
29.50101491465001
 31
0.0
  0
LINE
  5
146
  8
LAYER_01
  6
CONTINUOUS
 62
     1
 10
-227.60362117835
 20
46.59440099085
 30
0.0
 11
-227.60362117835
 21
4.501014914650008
 31
0.0
  0
LINE
  5
147
  8
LAYER_01
  6
CONTINUOUS
 62
     1
 10
-227.60362117835
 20
-41.59237116164999
 30
0.0
 11
-227.60362117835
 21
0.501014914650008
 31
0.0
  0
LINE
  5
148
  8
LAYER_01
  6
CONTINUOUS
 62
     1
 10
-225.60362117835
 20
-20.49898508534999
 30
0.0
 11
-225.60362117835
 21
25.50101491465001
 31
0.0
  0
LINE
  5
149
  8
LAYER_01
  6
CONTINUOUS
 62
     1
 10
-225.60362117835
 20
-43.49898508534999
 30
0.0
 11
-225.60362117835
 21
-24.49898508534999
 31
0.0
  0
LINE
  5
14A
  8
LAYER_01
  6
CONTINUOUS
 62
     1
 10
-225.60362117835
 20
48.50101491465001
 30
0.0
 11
-225.60362117835
 21
29.50101491465001
 31
0.0
  0
LINE
  5
14B
  8
LAYER_01
  6
CONTINUOUS
 62
     1
 10
-223.60362117835
 20
-45.49898508534999
 30
0.0
 11
-223.60362117835
 21
0.501014914650008
 31
0.0
  0
LINE
  5
14C
  8
LAYER_01
  6
CONTINUOUS
 62
     1
 10
-223.60362117835
 20
50.50101491465001
 30
0.0
 11
-223.60362117835
 21
4.501014914650008
 31
0.0
  0
LINE
  5
14D
  8
LAYER_01
  6
CONTINUOUS
 62
     1
 10
-221.60362117835
 20
-43.49898508534999
 30
0.0
 11
-221.60362117835
 21
-24.49898508534999
 31
0.0
  0
LINE
  5
14E
  8
LAYER_01
  6
CONTINUOUS
 62
     1
 10
-221.60362117835
 20
-20.49898508534999
 30
0.0
 11
-221.60362117835
 21
25.50101491465001
 31
0.0
  0
LINE
  5
14F
  8
LAYER_01
  6
CONTINUOUS
 62
     1
 10
-221.60362117835
 20
48.50101491465001
 30
0.0
 11
-221.60362117835
 21
29.50101491465001
 31
0.0
  0
LINE
  5
150
  8
LAYER_01
  6
CONTINUOUS
 62
     1
 10
-219.60362117835
 20
46.59440099085
 30
0.0
 11
-219.60362117835
 21
4.501014914650008
 31
0.0
  0
LINE
  5
151
  8
LAYER_01
  6
CONTINUOUS
 62
     1
 10
-219.60362117835
 20
-41.59237116164999
 30
0.0
 11
-219.60362117835
 21
0.501014914650008
 31
0.0
  0
LINE
  5
152
  8
LAYER_01
  6
CONTINUOUS
 62
     1
 10
-217.60362117835
 20
-20.49898508534999
 30
0.0
 11
-217.60362117835
 21
25.50101491465001
 31
0.0
  0
LINE
  5
153
  8
LAYER_01
  6
CONTINUOUS
 62
     1
 10
-217.60362117835
 20
-43.49898508534999
 30
0.0
 11
-217.60362117835
 21
-24.49898508534999
 31
0.0
  0
LINE
  5
154
  8
LAYER_01
  6
CONTINUOUS
 62
     1
 10
-217.60362117835
 20
48.50101491465001
 30
0.0
 11
-217.60362117835
 21
29.50101491465001
 31
0.0
  0
LINE
  5
155
  8
LAYER_01
  6
CONTINUOUS
 62
     1
 10
-215.60362117835
 20
-45.49898508534999
 30
0.0
 11
-215.60362117835
 21
0.501014914650008
 31
0.0
  0
LINE
  5
156
  8
LAYER_01
  6
CONTINUOUS
 62
     1
 10
-215.60362117835
 20
50.50101491465001
 30
0.0
 11
-215.60362117835
 21
4.501014914650008
 31
0.0
  0
LINE
  5
157
  8
LAYER_01
  6
CONTINUOUS
 62
     1
 10
-213.60362117835
 20
-43.49898508534999
 30
0.0
 11
-213.60362117835
 21
-24.49898508534999
 31
0.0
  0
LINE
  5
158
  8
LAYER_01
  6
CONTINUOUS
 62
     1
 10
-213.60362117835
 20
-20.49898508534999
 30
0.0
 11
-213.60362117835
 21
25.50101491465001
 31
0.0
  0
LINE
  5
159
  8
LAYER_01
  6
CONTINUOUS
 62
     1
 10
-213.60362117835
 20
48.50101491465001
 30
0.0
 11
-213.60362117835
 21
29.50101491465001
 31
0.0
  0
LINE
  5
15A
  8
LAYER_01
  6
CONTINUOUS
 62
     1
 10
-211.60362117835
 20
46.59440099085
 30
0.0
 11
-211.60362117835
 21
4.501014914650008
 31
0.0
  0
LINE
  5
15B
  8
LAYER_01
  6
CONTINUOUS
 62
     1
 10
-211.60362117835
 20
-41.59237116164999
 30
0.0
 11
-211.60362117835
 21
0.501014914650008
 31
0.0
  0
LINE
  5
15C
  8
LAYER_01
  6
CONTINUOUS
 62
     1
 10
-209.60362117835
 20
-20.49898508534999
 30
0.0
 11
-209.60362117835
 21
25.50101491465001
 31
0.0
  0
LINE
  5
15D
  8
LAYER_01
  6
CONTINUOUS
 62
     1
 10
-209.60362117835
 20
-43.49898508534999
 30
0.0
 11
-209.60362117835
 21
-24.49898508534999
 31
0.0
  0
LINE
  5
15E
  8
LAYER_01
  6
CONTINUOUS
 62
     1
 10
-209.60362117835
 20
48.50101491465001
 30
0.0
 11
-209.60362117835
 21
29.50101491465001
 31
0.0
  0
LINE
  5
15F
  8
LAYER_01
  6
CONTINUOUS
 62
     1
 10
-207.60362117835
 20
-45.49898508534999
 30
0.0
 11
-207.60362117835
 21
0.501014914650008
 31
0.0
  0
LINE
  5
160
  8
LAYER_01
  6
CONTINUOUS
 62
     1
 10
-207.60362117835
 20
50.50101491465001
 30
0.0
 11
-207.60362117835
 21
4.501014914650008
 31
0.0
  0
LINE
  5
161
  8
LAYER_01
  6
CONTINUOUS
 62
     1
 10
-205.60362117835
 20
-43.49898508534999
 30
0.0
 11
-205.60362117835
 21
-24.49898508534999
 31
0.0
  0
LINE
  5
162
  8
LAYER_01
  6
CONTINUOUS
 62
     1
 10
-205.60362117835
 20
-20.49898508534999
 30
0.0
 11
-205.60362117835
 21
25.50101491465001
 31
0.0
  0
LINE
  5
163
  8
LAYER_01
  6
CONTINUOUS
 62
     1
 10
-205.60362117835
 20
48.50101491465001
 30
0.0
 11
-205.60362117835
 21
29.50101491465001
 31
0.0
  0
LINE
  5
164
  8
LAYER_01
  6
CONTINUOUS
 62
     1
 10
-203.60362117835
 20
46.59440099085
 30
0.0
 11
-203.60362117835
 21
4.501014914650008
 31
0.0
  0
LINE
  5
165
  8
LAYER_01
  6
CONTINUOUS
 62
     1
 10
-203.60362117835
 20
-41.59237116164999
 30
0.0
 11
-203.60362117835
 21
0.501014914650008
 31
0.0
  0
LINE
  5
166
  8
LAYER_01
  6
CONTINUOUS
 62
     1
 10
-201.60362117835
 20
-20.49898508534999
 30
0.0
 11
-201.60362117835
 21
25.50101491465001
 31
0.0
  0
LINE
  5
167
  8
LAYER_01
  6
CONTINUOUS
 62
     1
 10
-201.60362117835
 20
-43.49898508534999
 30
0.0
 11
-201.60362117835
 21
-24.49898508534999
 31
0.0
  0
LINE
  5
168
  8
LAYER_01
  6
CONTINUOUS
 62
     1
 10
-201.60362117835
 20
48.50101491465001
 30
0.0
 11
-201.60362117835
 21
29.50101491465001
 31
0.0
  0
LINE
  5
169
  8
LAYER_01
  6
CONTINUOUS
 62
     1
 10
-199.60362117835
 20
-45.49898508534999
 30
0.0
 11
-199.60362117835
 21
0.501014914650008
 31
0.0
  0
LINE
  5
16A
  8
LAYER_01
  6
CONTINUOUS
 62
     1
 10
-199.60362117835
 20
50.50101491465001
 30
0.0
 11
-199.60362117835
 21
4.501014914650008
 31
0.0
  0
LINE
  5
16B
  8
LAYER_01
  6
CONTINUOUS
 62
     1
 10
-197.60362117835
 20
-43.49898508534999
 30
0.0
 11
-197.60362117835
 21
-24.49898508534999
 31
0.0
  0
LINE
  5
16C
  8
LAYER_01
  6
CONTINUOUS
 62
     1
 10
-197.60362117835
 20
-20.49898508534999
 30
0.0
 11
-197.60362117835
 21
25.50101491465001
 31
0.0
  0
LINE
  5
16D
  8
LAYER_01
  6
CONTINUOUS
 62
     1
 10
-197.60362117835
 20
48.50101491465001
 30
0.0
 11
-197.60362117835
 21
29.50101491465001
 31
0.0
  0
LINE
  5
16E
  8
LAYER_01
  6
CONTINUOUS
 62
     1
 10
-195.60362117835
 20
46.59440099085
 30
0.0
 11
-195.60362117835
 21
4.501014914650008
 31
0.0
  0
LINE
  5
16F
  8
LAYER_01
  6
CONTINUOUS
 62
     1
 10
-195.60362117835
 20
-41.59237116164999
 30
0.0
 11
-195.60362117835
 21
0.501014914650008
 31
0.0
  0
LINE
  5
170
  8
LAYER_01
  6
CONTINUOUS
 62
     1
 10
-193.60362117835
 20
-20.49898508534999
 30
0.0
 11
-193.60362117835
 21
25.50101491465001
 31
0.0
  0
LINE
  5
171
  8
LAYER_01
  6
CONTINUOUS
 62
     1
 10
-193.60362117835
 20
-43.49898508534999
 30
0.0
 11
-193.60362117835
 21
-24.49898508534999
 31
0.0
  0
LINE
  5
172
  8
LAYER_01
  6
CONTINUOUS
 62
     1
 10
-193.60362117835
 20
48.50101491465001
 30
0.0
 11
-193.60362117835
 21
29.50101491465001
 31
0.0
  0
LINE
  5
173
  8
LAYER_01
  6
CONTINUOUS
 62
     1
 10
-191.60362117835
 20
-45.49898508534999
 30
0.0
 11
-191.60362117835
 21
0.501014914650008
 31
0.0
  0
LINE
  5
174
  8
LAYER_01
  6
CONTINUOUS
 62
     1
 10
-191.60362117835
 20
50.50101491465001
 30
0.0
 11
-191.60362117835
 21
4.501014914650008
 31
0.0
  0
LINE
  5
175
  8
LAYER_01
  6
CONTINUOUS
 62
     1
 10
-189.60362117835
 20
-43.49898508534999
 30
0.0
 11
-189.60362117835
 21
-24.49898508534999
 31
0.0
  0
LINE
  5
176
  8
LAYER_01
  6
CONTINUOUS
 62
     1
 10
-189.60362117835
 20
-20.49898508534999
 30
0.0
 11
-189.60362117835
 21
25.50101491465001
 31
0.0
  0
LINE
  5
177
  8
LAYER_01
  6
CONTINUOUS
 62
     1
 10
-189.60362117835
 20
48.50101491465001
 30
0.0
 11
-189.60362117835
 21
29.50101491465001
 31
0.0
  0
LINE
  5
178
  8
LAYER_01
  6
CONTINUOUS
 62
     1
 10
-187.60362117835
 20
46.59440099085
 30
0.0
 11
-187.60362117835
 21
4.501014914650008
 31
0.0
  0
LINE
  5
179
  8
LAYER_01
  6
CONTINUOUS
 62
     1
 10
-187.60362117835
 20
-41.59237116164999
 30
0.0
 11
-187.60362117835
 21
0.501014914650008
 31
0.0
  0
LINE
  5
17A
  8
LAYER_01
  6
CONTINUOUS
 62
     1
 10
-185.60362117835
 20
-20.49898508534999
 30
0.0
 11
-185.60362117835
 21
25.50101491465001
 31
0.0
  0
LINE
  5
17B
  8
LAYER_01
  6
CONTINUOUS
 62
     1
 10
-185.60362117835
 20
-43.49898508534999
 30
0.0
 11
-185.60362117835
 21
-24.49898508534999
 31
0.0
  0
LINE
  5
17C
  8
LAYER_01
  6
CONTINUOUS
 62
     1
 10
-185.60362117835
 20
48.50101491465001
 30
0.0
 11
-185.60362117835
 21
29.50101491465001
 31
0.0
  0
LINE
  5
17D
  8
LAYER_01
  6
CONTINUOUS
 62
     1
 10
-183.60362117835
 20
-45.49898508534999
 30
0.0
 11
-183.60362117835
 21
0.501014914650008
 31
0.0
  0
LINE
  5
17E
  8
LAYER_01
  6
CONTINUOUS
 62
     1
 10
-183.60362117835
 20
50.50101491465001
 30
0.0
 11
-183.60362117835
 21
4.501014914650008
 31
0.0
  0
LINE
  5
17F
  8
LAYER_01
  6
CONTINUOUS
 62
     1
 10
-181.60362117835
 20
-43.49898508534999
 30
0.0
 11
-181.60362117835
 21
-24.49898508534999
 31
0.0
  0
LINE
  5
180
  8
LAYER_01
  6
CONTINUOUS
 62
     1
 10
-181.60362117835
 20
-20.49898508534999
 30
0.0
 11
-181.60362117835
 21
25.50101491465001
 31
0.0
  0
LINE
  5
181
  8
LAYER_01
  6
CONTINUOUS
 62
     1
 10
-181.60362117835
 20
48.50101491465001
 30
0.0
 11
-181.60362117835
 21
29.50101491465001
 31
0.0
  0
LINE
  5
182
  8
LAYER_01
  6
CONTINUOUS
 62
     1
 10
-179.60362117835
 20
46.59440099085
 30
0.0
 11
-179.60362117835
 21
4.501014914650008
 31
0.0
  0
LINE
  5
183
  8
LAYER_01
  6
CONTINUOUS
 62
     1
 10
-179.60362117835
 20
-41.59237116164999
 30
0.0
 11
-179.60362117835
 21
0.501014914650008
 31
0.0
  0
LINE
  5
184
  8
LAYER_01
  6
CONTINUOUS
 62
     1
 10
-177.60362117835
 20
-20.49898508534999
 30
0.0
 11
-177.60362117835
 21
25.50101491465001
 31
0.0
  0
LINE
  5
185
  8
LAYER_01
  6
CONTINUOUS
 62
     1
 10
-177.60362117835
 20
-43.49898508534999
 30
0.0
 11
-177.60362117835
 21
-24.49898508534999
 31
0.0
  0
LINE
  5
186
  8
LAYER_01
  6
CONTINUOUS
 62
     1
 10
-177.60362117835
 20
48.50101491465001
 30
0.0
 11
-177.60362117835
 21
29.50101491465001
 31
0.0
  0
LINE
  5
187
  8
LAYER_01
  6
CONTINUOUS
 62
     1
 10
-175.60362117835
 20
-45.49898508534999
 30
0.0
 11
-175.60362117835
 21
0.501014914650008
 31
0.0
  0
LINE
  5
188
  8
LAYER_01
  6
CONTINUOUS
 62
     1
 10
-175.60362117835
 20
50.50101491465001
 30
0.0
 11
-175.60362117835
 21
4.501014914650008
 31
0.0
  0
LINE
  5
189
  8
LAYER_01
  6
CONTINUOUS
 62
     1
 10
-173.60362117835
 20
-43.49898508534999
 30
0.0
 11
-173.60362117835
 21
-24.49898508534999
 31
0.0
  0
LINE
  5
18A
  8
LAYER_01
  6
CONTINUOUS
 62
     1
 10
-173.60362117835
 20
-20.49898508534999
 30
0.0
 11
-173.60362117835
 21
25.50101491465001
 31
0.0
  0
LINE
  5
18B
  8
LAYER_01
  6
CONTINUOUS
 62
     1
 10
-173.60362117835
 20
48.50101491465001
 30
0.0
 11
-173.60362117835
 21
29.50101491465001
 31
0.0
  0
LINE
  5
18C
  8
LAYER_01
  6
CONTINUOUS
 62
     1
 10
-171.60362117835
 20
46.59440099085
 30
0.0
 11
-171.60362117835
 21
4.501014914650008
 31
0.0
  0
LINE
  5
18D
  8
LAYER_01
  6
CONTINUOUS
 62
     1
 10
-171.60362117835
 20
-41.59237116164999
 30
0.0
 11
-171.60362117835
 21
0.501014914650008
 31
0.0
  0
LINE
  5
18E
  8
LAYER_01
  6
CONTINUOUS
 62
     1
 10
-169.60362117835
 20
-20.49898508534999
 30
0.0
 11
-169.60362117835
 21
25.50101491465001
 31
0.0
  0
LINE
  5
18F
  8
LAYER_01
  6
CONTINUOUS
 62
     1
 10
-169.60362117835
 20
-43.49898508534999
 30
0.0
 11
-169.60362117835
 21
-24.49898508534999
 31
0.0
  0
LINE
  5
190
  8
LAYER_01
  6
CONTINUOUS
 62
     1
 10
-169.60362117835
 20
48.50101491465001
 30
0.0
 11
-169.60362117835
 21
29.50101491465001
 31
0.0
  0
LINE
  5
191
  8
LAYER_01
  6
CONTINUOUS
 62
     1
 10
-167.60362117835
 20
-45.49898508534999
 30
0.0
 11
-167.60362117835
 21
0.501014914650008
 31
0.0
  0
LINE
  5
192
  8
LAYER_01
  6
CONTINUOUS
 62
     1
 10
-167.60362117835
 20
50.50101491465001
 30
0.0
 11
-167.60362117835
 21
4.501014914650008
 31
0.0
  0
LINE
  5
193
  8
LAYER_01
  6
CONTINUOUS
 62
     1
 10
-165.60362117835
 20
-43.49898508534999
 30
0.0
 11
-165.60362117835
 21
-24.49898508534999
 31
0.0
  0
LINE
  5
194
  8
LAYER_01
  6
CONTINUOUS
 62
     1
 10
-165.60362117835
 20
-20.49898508534999
 30
0.0
 11
-165.60362117835
 21
25.50101491465001
 31
0.0
  0
LINE
  5
195
  8
LAYER_01
  6
CONTINUOUS
 62
     1
 10
-165.60362117835
 20
48.50101491465001
 30
0.0
 11
-165.60362117835
 21
29.50101491465001
 31
0.0
  0
LINE
  5
196
  8
LAYER_01
  6
CONTINUOUS
 62
     1
 10
-163.60362117835
 20
46.59440099085
 30
0.0
 11
-163.60362117835
 21
4.501014914650008
 31
0.0
  0
LINE
  5
197
  8
LAYER_01
  6
CONTINUOUS
 62
     1
 10
-163.60362117835
 20
-41.59237116164999
 30
0.0
 11
-163.60362117835
 21
0.501014914650008
 31
0.0
  0
LINE
  5
198
  8
LAYER_01
  6
CONTINUOUS
 62
     1
 10
-161.60362117835
 20
-20.49898508534999
 30
0.0
 11
-161.60362117835
 21
25.50101491465001
 31
0.0
  0
LINE
  5
199
  8
LAYER_01
  6
CONTINUOUS
 62
     1
 10
-161.60362117835
 20
-43.49898508534999
 30
0.0
 11
-161.60362117835
 21
-24.49898508534999
 31
0.0
  0
LINE
  5
19A
  8
LAYER_01
  6
CONTINUOUS
 62
     1
 10
-161.60362117835
 20
48.50101491465001
 30
0.0
 11
-161.60362117835
 21
29.50101491465001
 31
0.0
  0
LINE
  5
19B
  8
LAYER_01
  6
CONTINUOUS
 62
     1
 10
-159.60362117835
 20
-45.49898508534999
 30
0.0
 11
-159.60362117835
 21
0.501014914650008
 31
0.0
  0
LINE
  5
19C
  8
LAYER_01
  6
CONTINUOUS
 62
     1
 10
-159.60362117835
 20
50.50101491465001
 30
0.0
 11
-159.60362117835
 21
4.501014914650008
 31
0.0
  0
LINE
  5
19D
  8
LAYER_01
  6
CONTINUOUS
 62
     1
 10
-157.60362117835
 20
-43.49898508534999
 30
0.0
 11
-157.60362117835
 21
-24.49898508534999
 31
0.0
  0
LINE
  5
19E
  8
LAYER_01
  6
CONTINUOUS
 62
     1
 10
-157.60362117835
 20
-20.49898508534999
 30
0.0
 11
-157.60362117835
 21
25.50101491465001
 31
0.0
  0
LINE
  5
19F
  8
LAYER_01
  6
CONTINUOUS
 62
     1
 10
-157.60362117835
 20
48.50101491465001
 30
0.0
 11
-157.60362117835
 21
29.50101491465001
 31
0.0
  0
LINE
  5
1A0
  8
LAYER_01
  6
CONTINUOUS
 62
     1
 10
-155.60362117835
 20
46.59440099085
 30
0.0
 11
-155.60362117835
 21
4.501014914650008
 31
0.0
  0
LINE
  5
1A1
  8
LAYER_01
  6
CONTINUOUS
 62
     1
 10
-155.60362117835
 20
-41.59237116164999
 30
0.0
 11
-155.60362117835
 21
0.501014914650008
 31
0.0
  0
LINE
  5
1A2
  8
LAYER_01
  6
CONTINUOUS
 62
     1
 10
-153.60362117835
 20
-20.49898508534999
 30
0.0
 11
-153.60362117835
 21
25.50101491465001
 31
0.0
  0
LINE
  5
1A3
  8
LAYER_01
  6
CONTINUOUS
 62
     1
 10
-153.60362117835
 20
-43.49898508534999
 30
0.0
 11
-153.60362117835
 21
-24.49898508534999
 31
0.0
  0
LINE
  5
1A4
  8
LAYER_01
  6
CONTINUOUS
 62
     1
 10
-153.60362117835
 20
48.50101491465001
 30
0.0
 11
-153.60362117835
 21
29.50101491465001
 31
0.0
  0
LINE
  5
1A5
  8
LAYER_01
  6
CONTINUOUS
 62
     1
 10
-151.60362117835
 20
-45.49898508534999
 30
0.0
 11
-151.60362117835
 21
0.501014914650008
 31
0.0
  0
LINE
  5
1A6
  8
LAYER_01
  6
CONTINUOUS
 62
     1
 10
-151.60362117835
 20
50.50101491465001
 30
0.0
 11
-151.60362117835
 21
4.501014914650008
 31
0.0
  0
LINE
  5
1A7
  8
LAYER_01
  6
CONTINUOUS
 62
     1
 10
-149.60362117835
 20
-43.49898508534999
 30
0.0
 11
-149.60362117835
 21
-24.49898508534999
 31
0.0
  0
LINE
  5
1A8
  8
LAYER_01
  6
CONTINUOUS
 62
     1
 10
-149.60362117835
 20
-20.49898508534999
 30
0.0
 11
-149.60362117835
 21
25.50101491465001
 31
0.0
  0
LINE
  5
1A9
  8
LAYER_01
  6
CONTINUOUS
 62
     1
 10
-149.60362117835
 20
48.50101491465001
 30
0.0
 11
-149.60362117835
 21
29.50101491465001
 31
0.0
  0
LINE
  5
1AA
  8
LAYER_01
  6
CONTINUOUS
 62
     1
 10
-147.60362117835
 20
46.59440099085
 30
0.0
 11
-147.60362117835
 21
4.501014914650008
 31
0.0
  0
LINE
  5
1AB
  8
LAYER_01
  6
CONTINUOUS
 62
     1
 10
-147.60362117835
 20
-41.59237116164999
 30
0.0
 11
-147.60362117835
 21
0.501014914650008
 31
0.0
  0
LINE
  5
1AC
  8
LAYER_01
  6
CONTINUOUS
 62
     1
 10
-145.60362117835
 20
-20.49898508534999
 30
0.0
 11
-145.60362117835
 21
25.50101491465001
 31
0.0
  0
LINE
  5
1AD
  8
LAYER_01
  6
CONTINUOUS
 62
     1
 10
-145.60362117835
 20
-43.49898508534999
 30
0.0
 11
-145.60362117835
 21
-24.49898508534999
 31
0.0
  0
LINE
  5
1AE
  8
LAYER_01
  6
CONTINUOUS
 62
     1
 10
-145.60362117835
 20
48.50101491465001
 30
0.0
 11
-145.60362117835
 21
29.50101491465001
 31
0.0
  0
LINE
  5
1AF
  8
LAYER_01
  6
CONTINUOUS
 62
     1
 10
-143.60362117835
 20
-45.49898508534999
 30
0.0
 11
-143.60362117835
 21
0.501014914650008
 31
0.0
  0
LINE
  5
1B0
  8
LAYER_01
  6
CONTINUOUS
 62
     1
 10
-143.60362117835
 20
50.50101491465001
 30
0.0
 11
-143.60362117835
 21
4.501014914650008
 31
0.0
  0
LINE
  5
1B1
  8
LAYER_01
  6
CONTINUOUS
 62
     1
 10
-141.60362117835
 20
-43.49898508534999
 30
0.0
 11
-141.60362117835
 21
-24.49898508534999
 31
0.0
  0
LINE
  5
1B2
  8
LAYER_01
  6
CONTINUOUS
 62
     1
 10
-141.60362117835
 20
-20.49898508534999
 30
0.0
 11
-141.60362117835
 21
25.50101491465001
 31
0.0
  0
LINE
  5
1B3
  8
LAYER_01
  6
CONTINUOUS
 62
     1
 10
-141.60362117835
 20
48.50101491465001
 30
0.0
 11
-141.60362117835
 21
29.50101491465001
 31
0.0
  0
LINE
  5
1B4
  8
LAYER_01
  6
CONTINUOUS
 62
     1
 10
-139.60362117835
 20
46.59440099085
 30
0.0
 11
-139.60362117835
 21
4.501014914650008
 31
0.0
  0
LINE
  5
1B5
  8
LAYER_01
  6
CONTINUOUS
 62
     1
 10
-139.60362117835
 20
-41.59237116164999
 30
0.0
 11
-139.60362117835
 21
0.501014914650008
 31
0.0
  0
LINE
  5
1B6
  8
LAYER_01
  6
CONTINUOUS
 62
     1
 10
-137.60362117835
 20
-20.49898508534999
 30
0.0
 11
-137.60362117835
 21
25.50101491465001
 31
0.0
  0
LINE
  5
1B7
  8
LAYER_01
  6
CONTINUOUS
 62
     1
 10
-137.60362117835
 20
-43.49898508534999
 30
0.0
 11
-137.60362117835
 21
-24.49898508534999
 31
0.0
  0
LINE
  5
1B8
  8
LAYER_01
  6
CONTINUOUS
 62
     1
 10
-137.60362117835
 20
48.50101491465001
 30
0.0
 11
-137.60362117835
 21
29.50101491465001
 31
0.0
  0
LINE
  5
1B9
  8
LAYER_01
  6
CONTINUOUS
 62
     1
 10
-135.60362117835
 20
-45.49898508534999
 30
0.0
 11
-135.60362117835
 21
0.501014914650008
 31
0.0
  0
LINE
  5
1BA
  8
LAYER_01
  6
CONTINUOUS
 62
     1
 10
-135.60362117835
 20
50.50101491465001
 30
0.0
 11
-135.60362117835
 21
4.501014914650008
 31
0.0
  0
LINE
  5
1BB
  8
LAYER_01
  6
CONTINUOUS
 62
     1
 10
-133.60362117835
 20
-43.49898508534999
 30
0.0
 11
-133.60362117835
 21
-24.49898508534999
 31
0.0
  0
LINE
  5
1BC
  8
LAYER_01
  6
CONTINUOUS
 62
     1
 10
-133.60362117835
 20
-20.49898508534999
 30
0.0
 11
-133.60362117835
 21
25.50101491465001
 31
0.0
  0
LINE
  5
1BD
  8
LAYER_01
  6
CONTINUOUS
 62
     1
 10
-133.60362117835
 20
48.50101491465001
 30
0.0
 11
-133.60362117835
 21
29.50101491465001
 31
0.0
  0
LINE
  5
1BE
  8
LAYER_01
  6
CONTINUOUS
 62
     1
 10
-131.60362117835
 20
46.59440099085
 30
0.0
 11
-131.60362117835
 21
4.501014914650008
 31
0.0
  0
LINE
  5
1BF
  8
LAYER_01
  6
CONTINUOUS
 62
     1
 10
-131.60362117835
 20
-41.59237116164999
 30
0.0
 11
-131.60362117835
 21
0.501014914650008
 31
0.0
  0
LINE
  5
1C0
  8
LAYER_01
  6
CONTINUOUS
 62
     1
 10
-129.60362117835
 20
-20.49898508534999
 30
0.0
 11
-129.60362117835
 21
25.50101491465001
 31
0.0
  0
LINE
  5
1C1
  8
LAYER_01
  6
CONTINUOUS
 62
     1
 10
-129.60362117835
 20
-43.49898508534999
 30
0.0
 11
-129.60362117835
 21
-24.49898508534999
 31
0.0
  0
LINE
  5
1C2
  8
LAYER_01
  6
CONTINUOUS
 62
     1
 10
-129.60362117835
 20
48.50101491465001
 30
0.0
 11
-129.60362117835
 21
29.50101491465001
 31
0.0
  0
LINE
  5
1C3
  8
LAYER_01
  6
CONTINUOUS
 62
     1
 10
-127.60362117835
 20
-45.49898508534999
 30
0.0
 11
-127.60362117835
 21
0.501014914650008
 31
0.0
  0
LINE
  5
1C4
  8
LAYER_01
  6
CONTINUOUS
 62
     1
 10
-127.60362117835
 20
50.50101491465001
 30
0.0
 11
-127.60362117835
 21
4.501014914650008
 31
0.0
  0
LINE
  5
1C5
  8
LAYER_01
  6
CONTINUOUS
 62
     1
 10
-125.60362117835
 20
-43.49898508534999
 30
0.0
 11
-125.60362117835
 21
-24.49898508534999
 31
0.0
  0
LINE
  5
1C6
  8
LAYER_01
  6
CONTINUOUS
 62
     1
 10
-125.60362117835
 20
-20.49898508534999
 30
0.0
 11
-125.60362117835
 21
25.50101491465001
 31
0.0
  0
LINE
  5
1C7
  8
LAYER_01
  6
CONTINUOUS
 62
     1
 10
-125.60362117835
 20
48.50101491465001
 30
0.0
 11
-125.60362117835
 21
29.50101491465001
 31
0.0
  0
LINE
  5
1C8
  8
LAYER_01
  6
CONTINUOUS
 62
     1
 10
-123.60362117835
 20
46.59440099085
 30
0.0
 11
-123.60362117835
 21
4.501014914650008
 31
0.0
  0
LINE
  5
1C9
  8
LAYER_01
  6
CONTINUOUS
 62
     1
 10
-123.60362117835
 20
-41.59237116164999
 30
0.0
 11
-123.60362117835
 21
0.501014914650008
 31
0.0
  0
LINE
  5
1CA
  8
LAYER_01
  6
CONTINUOUS
 62
     1
 10
-121.60362117835
 20
-20.49898508534999
 30
0.0
 11
-121.60362117835
 21
25.50101491465001
 31
0.0
  0
LINE
  5
1CB
  8
LAYER_01
  6
CONTINUOUS
 62
     1
 10
-121.60362117835
 20
-43.49898508534999
 30
0.0
 11
-121.60362117835
 21
-24.49898508534999
 31
0.0
  0
LINE
  5
1CC
  8
LAYER_01
  6
CONTINUOUS
 62
     1
 10
-121.60362117835
 20
48.50101491465001
 30
0.0
 11
-121.60362117835
 21
29.50101491465001
 31
0.0
  0
LINE
  5
1CD
  8
LAYER_01
  6
CONTINUOUS
 62
     1
 10
-119.60362117835
 20
-45.49898508534999
 30
0.0
 11
-119.60362117835
 21
0.501014914650008
 31
0.0
  0
LINE
  5
1CE
  8
LAYER_01
  6
CONTINUOUS
 62
     1
 10
-119.60362117835
 20
50.50101491465001
 30
0.0
 11
-119.60362117835
 21
4.501014914650008
 31
0.0
  0
LINE
  5
1CF
  8
LAYER_01
  6
CONTINUOUS
 62
     1
 10
-117.60362117835
 20
-43.49898508534999
 30
0.0
 11
-117.60362117835
 21
-24.49898508534999
 31
0.0
  0
LINE
  5
1D0
  8
LAYER_01
  6
CONTINUOUS
 62
     1
 10
-117.60362117835
 20
-20.49898508534999
 30
0.0
 11
-117.60362117835
 21
25.50101491465001
 31
0.0
  0
LINE
  5
1D1
  8
LAYER_01
  6
CONTINUOUS
 62
     1
 10
-117.60362117835
 20
48.50101491465001
 30
0.0
 11
-117.60362117835
 21
29.50101491465001
 31
0.0
  0
LINE
  5
1D2
  8
LAYER_01
  6
CONTINUOUS
 62
     1
 10
-115.60362117835
 20
46.59440099085
 30
0.0
 11
-115.60362117835
 21
4.501014914650008
 31
0.0
  0
LINE
  5
1D3
  8
LAYER_01
  6
CONTINUOUS
 62
     1
 10
-115.60362117835
 20
-41.59237116164999
 30
0.0
 11
-115.60362117835
 21
0.501014914650008
 31
0.0
  0
LINE
  5
1D4
  8
LAYER_01
  6
CONTINUOUS
 62
     1
 10
-113.60362117835
 20
-20.49898508534999
 30
0.0
 11
-113.60362117835
 21
25.50101491465001
 31
0.0
  0
LINE
  5
1D5
  8
LAYER_01
  6
CONTINUOUS
 62
     1
 10
-113.60362117835
 20
-43.49898508534999
 30
0.0
 11
-113.60362117835
 21
-24.49898508534999
 31
0.0
  0
LINE
  5
1D6
  8
LAYER_01
  6
CONTINUOUS
 62
     1
 10
-113.60362117835
 20
48.50101491465001
 30
0.0
 11
-113.60362117835
 21
29.50101491465001
 31
0.0
  0
LINE
  5
1D7
  8
LAYER_01
  6
CONTINUOUS
 62
     1
 10
-111.60362117835
 20
-45.49898508534999
 30
0.0
 11
-111.60362117835
 21
0.501014914650008
 31
0.0
  0
LINE
  5
1D8
  8
LAYER_01
  6
CONTINUOUS
 62
     1
 10
-111.60362117835
 20
50.50101491465001
 30
0.0
 11
-111.60362117835
 21
4.501014914650008
 31
0.0
  0
LINE
  5
1D9
  8
LAYER_01
  6
CONTINUOUS
 62
     1
 10
-109.60362117835
 20
-43.49898508534999
 30
0.0
 11
-109.60362117835
 21
-24.49898508534999
 31
0.0
  0
LINE
  5
1DA
  8
LAYER_01
  6
CONTINUOUS
 62
     1
 10
-109.60362117835
 20
-20.49898508534999
 30
0.0
 11
-109.60362117835
 21
25.50101491465001
 31
0.0
  0
LINE
  5
1DB
  8
LAYER_01
  6
CONTINUOUS
 62
     1
 10
-109.60362117835
 20
48.50101491465001
 30
0.0
 11
-109.60362117835
 21
29.50101491465001
 31
0.0
  0
LINE
  5
1DC
  8
LAYER_01
  6
CONTINUOUS
 62
     1
 10
-107.60362117835
 20
46.59440099085
 30
0.0
 11
-107.60362117835
 21
4.501014914650008
 31
0.0
  0
LINE
  5
1DD
  8
LAYER_01
  6
CONTINUOUS
 62
     1
 10
-107.60362117835
 20
-41.59237116164999
 30
0.0
 11
-107.60362117835
 21
0.501014914650008
 31
0.0
  0
LINE
  5
1DE
  8
LAYER_01
  6
CONTINUOUS
 62
     1
 10
-105.60362117835
 20
-20.49898508534999
 30
0.0
 11
-105.60362117835
 21
25.50101491465001
 31
0.0
  0
LINE
  5
1DF
  8
LAYER_01
  6
CONTINUOUS
 62
     1
 10
-105.60362117835
 20
-43.49898508534999
 30
0.0
 11
-105.60362117835
 21
-24.49898508534999
 31
0.0
  0
LINE
  5
1E0
  8
LAYER_01
  6
CONTINUOUS
 62
     1
 10
-105.60362117835
 20
48.50101491465001
 30
0.0
 11
-105.60362117835
 21
29.50101491465001
 31
0.0
  0
LINE
  5
1E1
  8
LAYER_01
  6
CONTINUOUS
 62
     1
 10
-103.60362117835
 20
-45.49898508534999
 30
0.0
 11
-103.60362117835
 21
0.501014914650008
 31
0.0
  0
LINE
  5
1E2
  8
LAYER_01
  6
CONTINUOUS
 62
     1
 10
-103.60362117835
 20
50.50101491465001
 30
0.0
 11
-103.60362117835
 21
4.501014914650008
 31
0.0
  0
LINE
  5
1E3
  8
LAYER_01
  6
CONTINUOUS
 62
     1
 10
-101.60362117835
 20
-43.49898508534999
 30
0.0
 11
-101.60362117835
 21
-24.49898508534999
 31
0.0
  0
LINE
  5
1E4
  8
LAYER_01
  6
CONTINUOUS
 62
     1
 10
-101.60362117835
 20
-20.49898508534999
 30
0.0
 11
-101.60362117835
 21
25.50101491465001
 31
0.0
  0
LINE
  5
1E5
  8
LAYER_01
  6
CONTINUOUS
 62
     1
 10
-101.60362117835
 20
48.50101491465001
 30
0.0
 11
-101.60362117835
 21
29.50101491465001
 31
0.0
  0
LINE
  5
1E6
  8
LAYER_01
  6
CONTINUOUS
 62
     1
 10
-99.60362117835
 20
46.59440099085
 30
0.0
 11
-99.60362117835
 21
4.501014914650008
 31
0.0
  0
LINE
  5
1E7
  8
LAYER_01
  6
CONTINUOUS
 62
     1
 10
-99.60362117835
 20
-41.59237116164999
 30
0.0
 11
-99.60362117835
 21
0.501014914650008
 31
0.0
  0
LINE
  5
1E8
  8
LAYER_01
  6
CONTINUOUS
 62
     1
 10
-301.60362117835
 20
48.50101491465001
 30
0.0
 11
-301.60362117835
 21
4.032779297850007
 31
0.0
  0
LINE
  5
1E9
  8
LAYER_01
  6
CONTINUOUS
 62
     1
 10
-297.60362117835
 20
-43.49898508534999
 30
0.0
 11
-297.60362117835
 21
-47.49898508534999
 31
0.0
  0
LINE
  5
1EA
  8
LAYER_01
  6
CONTINUOUS
 62
     1
 10
-297.60362117835
 20
-47.49898508534999
 30
0.0
 11
-293.60362117835
 21
-47.49898508534999
 31
0.0
  0
LINE
  5
1EB
  8
LAYER_01
  6
CONTINUOUS
 62
     1
 10
-293.60362117835
 20
-47.49898508534999
 30
0.0
 11
-293.60362117835
 21
-43.49898508534999
 31
0.0
  0
LINE
  5
1EC
  8
LAYER_01
  6
CONTINUOUS
 62
     1
 10
-289.60362117835
 20
-43.49898508534999
 30
0.0
 11
-289.60362117835
 21
-47.49898508534999
 31
0.0
  0
LINE
  5
1ED
  8
LAYER_01
  6
CONTINUOUS
 62
     1
 10
-289.60362117835
 20
-47.49898508534999
 30
0.0
 11
-285.60362117835
 21
-47.49898508534999
 31
0.0
  0
LINE
  5
1EE
  8
LAYER_01
  6
CONTINUOUS
 62
     1
 10
-285.60362117835
 20
-47.49898508534999
 30
0.0
 11
-285.60362117835
 21
-43.49898508534999
 31
0.0
  0
LINE
  5
1EF
  8
LAYER_01
  6
CONTINUOUS
 62
     1
 10
-281.60362117835
 20
-43.49898508534999
 30
0.0
 11
-281.60362117835
 21
-47.49898508534999
 31
0.0
  0
LINE
  5
1F0
  8
LAYER_01
  6
CONTINUOUS
 62
     1
 10
-281.60362117835
 20
-47.49898508534999
 30
0.0
 11
-277.60362117835
 21
-47.49898508534999
 31
0.0
  0
LINE
  5
1F1
  8
LAYER_01
  6
CONTINUOUS
 62
     1
 10
-277.60362117835
 20
-47.49898508534999
 30
0.0
 11
-277.60362117835
 21
-43.49898508534999
 31
0.0
  0
LINE
  5
1F2
  8
LAYER_01
  6
CONTINUOUS
 62
     1
 10
-273.60362117835
 20
-43.49898508534999
 30
0.0
 11
-273.60362117835
 21
-47.49898508534999
 31
0.0
  0
LINE
  5
1F3
  8
LAYER_01
  6
CONTINUOUS
 62
     1
 10
-273.60362117835
 20
-47.49898508534999
 30
0.0
 11
-269.60362117835
 21
-47.49898508534999
 31
0.0
  0
LINE
  5
1F4
  8
LAYER_01
  6
CONTINUOUS
 62
     1
 10
-269.60362117835
 20
-47.49898508534999
 30
0.0
 11
-269.60362117835
 21
-43.49898508534999
 31
0.0
  0
LINE
  5
1F5
  8
LAYER_01
  6
CONTINUOUS
 62
     1
 10
-265.60362117835
 20
-43.49898508534999
 30
0.0
 11
-265.60362117835
 21
-47.49898508534999
 31
0.0
  0
LINE
  5
1F6
  8
LAYER_01
  6
CONTINUOUS
 62
     1
 10
-265.60362117835
 20
-47.49898508534999
 30
0.0
 11
-261.60362117835
 21
-47.49898508534999
 31
0.0
  0
LINE
  5
1F7
  8
LAYER_01
  6
CONTINUOUS
 62
     1
 10
-261.60362117835
 20
-47.49898508534999
 30
0.0
 11
-261.60362117835
 21
-43.49898508534999
 31
0.0
  0
LINE
  5
1F8
  8
LAYER_01
  6
CONTINUOUS
 62
     1
 10
-257.60362117835
 20
-43.49898508534999
 30
0.0
 11
-257.60362117835
 21
-47.49898508534999
 31
0.0
  0
LINE
  5
1F9
  8
LAYER_01
  6
CONTINUOUS
 62
     1
 10
-257.60362117835
 20
-47.49898508534999
 30
0.0
 11
-253.60362117835
 21
-47.49898508534999
 31
0.0
  0
LINE
  5
1FA
  8
LAYER_01
  6
CONTINUOUS
 62
     1
 10
-253.60362117835
 20
-47.49898508534999
 30
0.0
 11
-253.60362117835
 21
-43.49898508534999
 31
0.0
  0
LINE
  5
1FB
  8
LAYER_01
  6
CONTINUOUS
 62
     1
 10
-249.60362117835
 20
-43.49898508534999
 30
0.0
 11
-249.60362117835
 21
-47.49898508534999
 31
0.0
  0
LINE
  5
1FC
  8
LAYER_01
  6
CONTINUOUS
 62
     1
 10
-249.60362117835
 20
-47.49898508534999
 30
0.0
 11
-245.60362117835
 21
-47.49898508534999
 31
0.0
  0
LINE
  5
1FD
  8
LAYER_01
  6
CONTINUOUS
 62
     1
 10
-245.60362117835
 20
-47.49898508534999
 30
0.0
 11
-245.60362117835
 21
-43.49898508534999
 31
0.0
  0
LINE
  5
1FE
  8
LAYER_01
  6
CONTINUOUS
 62
     1
 10
-241.60362117835
 20
-43.49898508534999
 30
0.0
 11
-241.60362117835
 21
-47.49898508534999
 31
0.0
  0
LINE
  5
1FF
  8
LAYER_01
  6
CONTINUOUS
 62
     1
 10
-241.60362117835
 20
-47.49898508534999
 30
0.0
 11
-237.60362117835
 21
-47.49898508534999
 31
0.0
  0
LINE
  5
200
  8
LAYER_01
  6
CONTINUOUS
 62
     1
 10
-237.60362117835
 20
-47.49898508534999
 30
0.0
 11
-237.60362117835
 21
-43.49898508534999
 31
0.0
  0
LINE
  5
201
  8
LAYER_01
  6
CONTINUOUS
 62
     1
 10
-233.60362117835
 20
-43.49898508534999
 30
0.0
 11
-233.60362117835
 21
-47.49898508534999
 31
0.0
  0
LINE
  5
202
  8
LAYER_01
  6
CONTINUOUS
 62
     1
 10
-233.60362117835
 20
-47.49898508534999
 30
0.0
 11
-229.60362117835
 21
-47.49898508534999
 31
0.0
  0
LINE
  5
203
  8
LAYER_01
  6
CONTINUOUS
 62
     1
 10
-229.60362117835
 20
-47.49898508534999
 30
0.0
 11
-229.60362117835
 21
-43.49898508534999
 31
0.0
  0
LINE
  5
204
  8
LAYER_01
  6
CONTINUOUS
 62
     1
 10
-225.60362117835
 20
-43.49898508534999
 30
0.0
 11
-225.60362117835
 21
-47.49898508534999
 31
0.0
  0
LINE
  5
205
  8
LAYER_01
  6
CONTINUOUS
 62
     1
 10
-225.60362117835
 20
-47.49898508534999
 30
0.0
 11
-221.60362117835
 21
-47.49898508534999
 31
0.0
  0
LINE
  5
206
  8
LAYER_01
  6
CONTINUOUS
 62
     1
 10
-221.60362117835
 20
-47.49898508534999
 30
0.0
 11
-221.60362117835
 21
-43.49898508534999
 31
0.0
  0
LINE
  5
207
  8
LAYER_01
  6
CONTINUOUS
 62
     1
 10
-217.60362117835
 20
-43.49898508534999
 30
0.0
 11
-217.60362117835
 21
-47.49898508534999
 31
0.0
  0
LINE
  5
208
  8
LAYER_01
  6
CONTINUOUS
 62
     1
 10
-217.60362117835
 20
-47.49898508534999
 30
0.0
 11
-213.60362117835
 21
-47.49898508534999
 31
0.0
  0
LINE
  5
209
  8
LAYER_01
  6
CONTINUOUS
 62
     1
 10
-213.60362117835
 20
-47.49898508534999
 30
0.0
 11
-213.60362117835
 21
-43.49898508534999
 31
0.0
  0
LINE
  5
20A
  8
LAYER_01
  6
CONTINUOUS
 62
     1
 10
-209.60362117835
 20
-43.49898508534999
 30
0.0
 11
-209.60362117835
 21
-47.49898508534999
 31
0.0
  0
LINE
  5
20B
  8
LAYER_01
  6
CONTINUOUS
 62
     1
 10
-209.60362117835
 20
-47.49898508534999
 30
0.0
 11
-205.60362117835
 21
-47.49898508534999
 31
0.0
  0
LINE
  5
20C
  8
LAYER_01
  6
CONTINUOUS
 62
     1
 10
-205.60362117835
 20
-47.49898508534999
 30
0.0
 11
-205.60362117835
 21
-43.49898508534999
 31
0.0
  0
LINE
  5
20D
  8
LAYER_01
  6
CONTINUOUS
 62
     1
 10
-201.60362117835
 20
-43.49898508534999
 30
0.0
 11
-201.60362117835
 21
-47.49898508534999
 31
0.0
  0
LINE
  5
20E
  8
LAYER_01
  6
CONTINUOUS
 62
     1
 10
-201.60362117835
 20
-47.49898508534999
 30
0.0
 11
-197.60362117835
 21
-47.49898508534999
 31
0.0
  0
LINE
  5
20F
  8
LAYER_01
  6
CONTINUOUS
 62
     1
 10
-197.60362117835
 20
-47.49898508534999
 30
0.0
 11
-197.60362117835
 21
-43.49898508534999
 31
0.0
  0
LINE
  5
210
  8
LAYER_01
  6
CONTINUOUS
 62
     1
 10
-193.60362117835
 20
-43.49898508534999
 30
0.0
 11
-193.60362117835
 21
-47.49898508534999
 31
0.0
  0
LINE
  5
211
  8
LAYER_01
  6
CONTINUOUS
 62
     1
 10
-193.60362117835
 20
-47.49898508534999
 30
0.0
 11
-189.60362117835
 21
-47.49898508534999
 31
0.0
  0
LINE
  5
212
  8
LAYER_01
  6
CONTINUOUS
 62
     1
 10
-189.60362117835
 20
-47.49898508534999
 30
0.0
 11
-189.60362117835
 21
-43.49898508534999
 31
0.0
  0
LINE
  5
213
  8
LAYER_01
  6
CONTINUOUS
 62
     1
 10
-185.60362117835
 20
-43.49898508534999
 30
0.0
 11
-185.60362117835
 21
-47.49898508534999
 31
0.0
  0
LINE
  5
214
  8
LAYER_01
  6
CONTINUOUS
 62
     1
 10
-185.60362117835
 20
-47.49898508534999
 30
0.0
 11
-181.60362117835
 21
-47.49898508534999
 31
0.0
  0
LINE
  5
215
  8
LAYER_01
  6
CONTINUOUS
 62
     1
 10
-181.60362117835
 20
-47.49898508534999
 30
0.0
 11
-181.60362117835
 21
-43.49898508534999
 31
0.0
  0
LINE
  5
216
  8
LAYER_01
  6
CONTINUOUS
 62
     1
 10
-177.60362117835
 20
-43.49898508534999
 30
0.0
 11
-177.60362117835
 21
-47.49898508534999
 31
0.0
  0
LINE
  5
217
  8
LAYER_01
  6
CONTINUOUS
 62
     1
 10
-177.60362117835
 20
-47.49898508534999
 30
0.0
 11
-173.60362117835
 21
-47.49898508534999
 31
0.0
  0
LINE
  5
218
  8
LAYER_01
  6
CONTINUOUS
 62
     1
 10
-173.60362117835
 20
-47.49898508534999
 30
0.0
 11
-173.60362117835
 21
-43.49898508534999
 31
0.0
  0
LINE
  5
219
  8
LAYER_01
  6
CONTINUOUS
 62
     1
 10
-169.60362117835
 20
-43.49898508534999
 30
0.0
 11
-169.60362117835
 21
-47.49898508534999
 31
0.0
  0
LINE
  5
21A
  8
LAYER_01
  6
CONTINUOUS
 62
     1
 10
-169.60362117835
 20
-47.49898508534999
 30
0.0
 11
-165.60362117835
 21
-47.49898508534999
 31
0.0
  0
LINE
  5
21B
  8
LAYER_01
  6
CONTINUOUS
 62
     1
 10
-165.60362117835
 20
-47.49898508534999
 30
0.0
 11
-165.60362117835
 21
-43.49898508534999
 31
0.0
  0
LINE
  5
21C
  8
LAYER_01
  6
CONTINUOUS
 62
     1
 10
-161.60362117835
 20
-43.49898508534999
 30
0.0
 11
-161.60362117835
 21
-47.49898508534999
 31
0.0
  0
LINE
  5
21D
  8
LAYER_01
  6
CONTINUOUS
 62
     1
 10
-161.60362117835
 20
-47.49898508534999
 30
0.0
 11
-157.60362117835
 21
-47.49898508534999
 31
0.0
  0
LINE
  5
21E
  8
LAYER_01
  6
CONTINUOUS
 62
     1
 10
-157.60362117835
 20
-47.49898508534999
 30
0.0
 11
-157.60362117835
 21
-43.49898508534999
 31
0.0
  0
LINE
  5
21F
  8
LAYER_01
  6
CONTINUOUS
 62
     1
 10
-153.60362117835
 20
-43.49898508534999
 30
0.0
 11
-153.60362117835
 21
-47.49898508534999
 31
0.0
  0
LINE
  5
220
  8
LAYER_01
  6
CONTINUOUS
 62
     1
 10
-153.60362117835
 20
-47.49898508534999
 30
0.0
 11
-149.60362117835
 21
-47.49898508534999
 31
0.0
  0
LINE
  5
221
  8
LAYER_01
  6
CONTINUOUS
 62
     1
 10
-149.60362117835
 20
-47.49898508534999
 30
0.0
 11
-149.60362117835
 21
-43.49898508534999
 31
0.0
  0
LINE
  5
222
  8
LAYER_01
  6
CONTINUOUS
 62
     1
 10
-145.60362117835
 20
-43.49898508534999
 30
0.0
 11
-145.60362117835
 21
-47.49898508534999
 31
0.0
  0
LINE
  5
223
  8
LAYER_01
  6
CONTINUOUS
 62
     1
 10
-145.60362117835
 20
-47.49898508534999
 30
0.0
 11
-141.60362117835
 21
-47.49898508534999
 31
0.0
  0
LINE
  5
224
  8
LAYER_01
  6
CONTINUOUS
 62
     1
 10
-141.60362117835
 20
-47.49898508534999
 30
0.0
 11
-141.60362117835
 21
-43.49898508534999
 31
0.0
  0
LINE
  5
225
  8
LAYER_01
  6
CONTINUOUS
 62
     1
 10
-297.60362117835
 20
-43.49898508534999
 30
0.0
 11
-301.60362117835
 21
-43.49898508534999
 31
0.0
  0
LINE
  5
226
  8
LAYER_01
  6
CONTINUOUS
 62
     1
 10
-289.60362117835
 20
-43.49898508534999
 30
0.0
 11
-293.60362117835
 21
-43.49898508534999
 31
0.0
  0
LINE
  5
227
  8
LAYER_01
  6
CONTINUOUS
 62
     1
 10
-281.60362117835
 20
-43.49898508534999
 30
0.0
 11
-285.60362117835
 21
-43.49898508534999
 31
0.0
  0
LINE
  5
228
  8
LAYER_01
  6
CONTINUOUS
 62
     1
 10
-273.60362117835
 20
-43.49898508534999
 30
0.0
 11
-277.60362117835
 21
-43.49898508534999
 31
0.0
  0
LINE
  5
229
  8
LAYER_01
  6
CONTINUOUS
 62
     1
 10
-265.60362117835
 20
-43.49898508534999
 30
0.0
 11
-269.60362117835
 21
-43.49898508534999
 31
0.0
  0
LINE
  5
22A
  8
LAYER_01
  6
CONTINUOUS
 62
     1
 10
-257.60362117835
 20
-43.49898508534999
 30
0.0
 11
-261.60362117835
 21
-43.49898508534999
 31
0.0
  0
LINE
  5
22B
  8
LAYER_01
  6
CONTINUOUS
 62
     1
 10
-249.60362117835
 20
-43.49898508534999
 30
0.0
 11
-253.60362117835
 21
-43.49898508534999
 31
0.0
  0
LINE
  5
22C
  8
LAYER_01
  6
CONTINUOUS
 62
     1
 10
-241.60362117835
 20
-43.49898508534999
 30
0.0
 11
-245.60362117835
 21
-43.49898508534999
 31
0.0
  0
LINE
  5
22D
  8
LAYER_01
  6
CONTINUOUS
 62
     1
 10
-233.60362117835
 20
-43.49898508534999
 30
0.0
 11
-237.60362117835
 21
-43.49898508534999
 31
0.0
  0
LINE
  5
22E
  8
LAYER_01
  6
CONTINUOUS
 62
     1
 10
-225.60362117835
 20
-43.49898508534999
 30
0.0
 11
-229.60362117835
 21
-43.49898508534999
 31
0.0
  0
LINE
  5
22F
  8
LAYER_01
  6
CONTINUOUS
 62
     1
 10
-217.60362117835
 20
-43.49898508534999
 30
0.0
 11
-221.60362117835
 21
-43.49898508534999
 31
0.0
  0
LINE
  5
230
  8
LAYER_01
  6
CONTINUOUS
 62
     1
 10
-209.60362117835
 20
-43.49898508534999
 30
0.0
 11
-213.60362117835
 21
-43.49898508534999
 31
0.0
  0
LINE
  5
231
  8
LAYER_01
  6
CONTINUOUS
 62
     1
 10
-201.60362117835
 20
-43.49898508534999
 30
0.0
 11
-205.60362117835
 21
-43.49898508534999
 31
0.0
  0
LINE
  5
232
  8
LAYER_01
  6
CONTINUOUS
 62
     1
 10
-193.60362117835
 20
-43.49898508534999
 30
0.0
 11
-197.60362117835
 21
-43.49898508534999
 31
0.0
  0
LINE
  5
233
  8
LAYER_01
  6
CONTINUOUS
 62
     1
 10
-185.60362117835
 20
-43.49898508534999
 30
0.0
 11
-189.60362117835
 21
-43.49898508534999
 31
0.0
  0
LINE
  5
234
  8
LAYER_01
  6
CONTINUOUS
 62
     1
 10
-177.60362117835
 20
-43.49898508534999
 30
0.0
 11
-181.60362117835
 21
-43.49898508534999
 31
0.0
  0
LINE
  5
235
  8
LAYER_01
  6
CONTINUOUS
 62
     1
 10
-169.60362117835
 20
-43.49898508534999
 30
0.0
 11
-173.60362117835
 21
-43.49898508534999
 31
0.0
  0
LINE
  5
236
  8
LAYER_01
  6
CONTINUOUS
 62
     1
 10
-161.60362117835
 20
-43.49898508534999
 30
0.0
 11
-165.60362117835
 21
-43.49898508534999
 31
0.0
  0
LINE
  5
237
  8
LAYER_01
  6
CONTINUOUS
 62
     1
 10
-153.60362117835
 20
-43.49898508534999
 30
0.0
 11
-157.60362117835
 21
-43.49898508534999
 31
0.0
  0
LINE
  5
238
  8
LAYER_01
  6
CONTINUOUS
 62
     1
 10
-145.60362117835
 20
-43.49898508534999
 30
0.0
 11
-149.60362117835
 21
-43.49898508534999
 31
0.0
  0
ARC
  5
239
  8
LAYER_01
  6
CONTINUOUS
 62
     1
 10
30.67148574105002
 20
3.277211127050009
 30
0.0
 40
3.499999999999999
 50
205.6543547927
 51
154.3456452071999
  0
ARC
  5
23A
  8
LAYER_01
  6
CONTINUOUS
 62
     1
 10
27.06579688575002
 20
5.008975510249996
 30
0.0
 40
0.5000000000000004
 50
270.0
 51
334.3456452072001
  0
ARC
  5
23B
  8
LAYER_01
  6
CONTINUOUS
 62
     1
 10
27.06579688575002
 20
1.545446743950009
 30
0.0
 40
0.5000000000000004
 50
25.6543547927001
 51
90.0
  0
ARC
  5
23C
  8
LAYER_01
  6
CONTINUOUS
 62
     1
 10
25.75286269295003
 20
4.708975510250013
 30
0.0
 40
0.2000000000000028
 50
180.0
 51
270.0
  0
ARC
  5
23D
  8
LAYER_01
  6
CONTINUOUS
 62
     1
 10
25.75286269295003
 20
1.845446743950006
 30
0.0
 40
0.2000000000000028
 50
90.0
 51
180.0
  0
LINE
  5
23E
  8
LAYER_01
  6
CONTINUOUS
 62
     1
 10
-72.44713730704996
 20
-44.72278887294999
 30
0.0
 11
-72.44713730704996
 21
1.277211127050009
 31
0.0
  0
LINE
  5
23F
  8
LAYER_01
  6
CONTINUOUS
 62
     1
 10
-72.44713730704996
 20
51.27721112705001
 30
0.0
 11
-72.44713730704996
 21
5.277211127050009
 31
0.0
  0
LINE
  5
240
  8
LAYER_01
  6
CONTINUOUS
 62
     1
 10
-78.44713730704996
 20
-46.72278887294999
 30
0.0
 11
-78.44713730704996
 21
-42.72278887294999
 31
0.0
  0
LINE
  5
241
  8
LAYER_01
  6
CONTINUOUS
 62
     1
 10
-78.44713730704996
 20
49.27721112705001
 30
0.0
 11
-78.44713730704996
 21
53.27721112705001
 31
0.0
  0
LINE
  5
242
  8
LAYER_01
  6
CONTINUOUS
 62
     1
 10
-74.44713730704996
 20
-42.72278887294999
 30
0.0
 11
-74.44713730704996
 21
-46.72278887294999
 31
0.0
  0
LINE
  5
243
  8
LAYER_01
  6
CONTINUOUS
 62
     1
 10
-70.44713730704996
 20
-42.72278887294999
 30
0.0
 11
-70.44713730704996
 21
-23.72278887294999
 31
0.0
  0
LINE
  5
244
  8
LAYER_01
  6
CONTINUOUS
 62
     1
 10
-78.44713730704996
 20
53.27721112705001
 30
0.0
 11
-82.44713730704996
 21
53.27721112705001
 31
0.0
  0
LINE
  5
245
  8
LAYER_01
  6
CONTINUOUS
 62
     1
 10
-82.44713730704996
 20
-46.72278887294999
 30
0.0
 11
-78.44713730704996
 21
-46.72278887294999
 31
0.0
  0
LINE
  5
246
  8
LAYER_01
  6
CONTINUOUS
 62
     1
 10
-74.44713730704996
 20
-46.72278887294999
 30
0.0
 11
-70.44713730704996
 21
-46.72278887294999
 31
0.0
  0
LINE
  5
247
  8
LAYER_01
  6
CONTINUOUS
 62
     1
 10
-70.44713730704996
 20
-46.72278887294999
 30
0.0
 11
-70.44713730704996
 21
-42.72278887294999
 31
0.0
  0
LINE
  5
248
  8
LAYER_01
  6
CONTINUOUS
 62
     1
 10
-74.44713730704996
 20
49.27721112705001
 30
0.0
 11
-74.44713730704996
 21
53.27721112705001
 31
0.0
  0
LINE
  5
249
  8
LAYER_01
  6
CONTINUOUS
 62
     1
 10
-70.44713730704996
 20
53.27721112705001
 30
0.0
 11
-74.44713730704996
 21
53.27721112705001
 31
0.0
  0
LINE
  5
24A
  8
LAYER_01
  6
CONTINUOUS
 62
     1
 10
-70.44713730704996
 20
49.27721112705001
 30
0.0
 11
-70.44713730704996
 21
53.27721112705001
 31
0.0
  0
LINE
  5
24B
  8
LAYER_01
  6
CONTINUOUS
 62
     1
 10
-66.44713730704996
 20
-42.72278887294999
 30
0.0
 11
-66.44713730704996
 21
-46.72278887294999
 31
0.0
  0
LINE
  5
24C
  8
LAYER_01
  6
CONTINUOUS
 62
     1
 10
-66.44713730704996
 20
-46.72278887294999
 30
0.0
 11
-62.44713730704996
 21
-46.72278887294999
 31
0.0
  0
LINE
  5
24D
  8
LAYER_01
  6
CONTINUOUS
 62
     1
 10
-62.44713730704996
 20
-46.72278887294999
 30
0.0
 11
-62.44713730704996
 21
-42.72278887294999
 31
0.0
  0
LINE
  5
24E
  8
LAYER_01
  6
CONTINUOUS
 62
     1
 10
-66.44713730704996
 20
49.27721112705001
 30
0.0
 11
-66.44713730704996
 21
53.27721112705001
 31
0.0
  0
LINE
  5
24F
  8
LAYER_01
  6
CONTINUOUS
 62
     1
 10
-62.44713730704996
 20
53.27721112705001
 30
0.0
 11
-66.44713730704996
 21
53.27721112705001
 31
0.0
  0
LINE
  5
250
  8
LAYER_01
  6
CONTINUOUS
 62
     1
 10
-62.44713730704996
 20
49.27721112705001
 30
0.0
 11
-62.44713730704996
 21
53.27721112705001
 31
0.0
  0
LINE
  5
251
  8
LAYER_01
  6
CONTINUOUS
 62
     1
 10
-58.44713730704996
 20
-42.72278887294999
 30
0.0
 11
-58.44713730704996
 21
-46.72278887294999
 31
0.0
  0
LINE
  5
252
  8
LAYER_01
  6
CONTINUOUS
 62
     1
 10
-58.44713730704996
 20
-46.72278887294999
 30
0.0
 11
-54.44713730704996
 21
-46.72278887294999
 31
0.0
  0
LINE
  5
253
  8
LAYER_01
  6
CONTINUOUS
 62
     1
 10
-54.44713730704996
 20
-46.72278887294999
 30
0.0
 11
-54.44713730704996
 21
-42.72278887294999
 31
0.0
  0
LINE
  5
254
  8
LAYER_01
  6
CONTINUOUS
 62
     1
 10
-58.44713730704996
 20
49.27721112705001
 30
0.0
 11
-58.44713730704996
 21
53.27721112705001
 31
0.0
  0
LINE
  5
255
  8
LAYER_01
  6
CONTINUOUS
 62
     1
 10
-54.44713730704996
 20
53.27721112705001
 30
0.0
 11
-58.44713730704996
 21
53.27721112705001
 31
0.0
  0
LINE
  5
256
  8
LAYER_01
  6
CONTINUOUS
 62
     1
 10
-54.44713730704996
 20
49.27721112705001
 30
0.0
 11
-54.44713730704996
 21
53.27721112705001
 31
0.0
  0
LINE
  5
257
  8
LAYER_01
  6
CONTINUOUS
 62
     1
 10
-50.44713730704996
 20
-42.72278887294999
 30
0.0
 11
-50.44713730704996
 21
-46.72278887294999
 31
0.0
  0
LINE
  5
258
  8
LAYER_01
  6
CONTINUOUS
 62
     1
 10
-50.44713730704996
 20
-46.72278887294999
 30
0.0
 11
-46.44713730704996
 21
-46.72278887294999
 31
0.0
  0
LINE
  5
259
  8
LAYER_01
  6
CONTINUOUS
 62
     1
 10
-46.44713730704996
 20
-46.72278887294999
 30
0.0
 11
-46.44713730704996
 21
-42.72278887294999
 31
0.0
  0
LINE
  5
25A
  8
LAYER_01
  6
CONTINUOUS
 62
     1
 10
-50.44713730704996
 20
49.27721112705001
 30
0.0
 11
-50.44713730704996
 21
53.27721112705001
 31
0.0
  0
LINE
  5
25B
  8
LAYER_01
  6
CONTINUOUS
 62
     1
 10
-46.44713730704996
 20
53.27721112705001
 30
0.0
 11
-50.44713730704996
 21
53.27721112705001
 31
0.0
  0
LINE
  5
25C
  8
LAYER_01
  6
CONTINUOUS
 62
     1
 10
-46.44713730704996
 20
49.27721112705001
 30
0.0
 11
-46.44713730704996
 21
53.27721112705001
 31
0.0
  0
LINE
  5
25D
  8
LAYER_01
  6
CONTINUOUS
 62
     1
 10
-42.44713730704996
 20
-42.72278887294999
 30
0.0
 11
-42.44713730704996
 21
-46.72278887294999
 31
0.0
  0
LINE
  5
25E
  8
LAYER_01
  6
CONTINUOUS
 62
     1
 10
-42.44713730704996
 20
-46.72278887294999
 30
0.0
 11
-38.44713730704996
 21
-46.72278887294999
 31
0.0
  0
LINE
  5
25F
  8
LAYER_01
  6
CONTINUOUS
 62
     1
 10
-38.44713730704996
 20
-46.72278887294999
 30
0.0
 11
-38.44713730704996
 21
-42.72278887294999
 31
0.0
  0
LINE
  5
260
  8
LAYER_01
  6
CONTINUOUS
 62
     1
 10
-42.44713730704996
 20
49.27721112705001
 30
0.0
 11
-42.44713730704996
 21
53.27721112705001
 31
0.0
  0
LINE
  5
261
  8
LAYER_01
  6
CONTINUOUS
 62
     1
 10
-38.44713730704996
 20
53.27721112705001
 30
0.0
 11
-42.44713730704996
 21
53.27721112705001
 31
0.0
  0
LINE
  5
262
  8
LAYER_01
  6
CONTINUOUS
 62
     1
 10
-38.44713730704996
 20
49.27721112705001
 30
0.0
 11
-38.44713730704996
 21
53.27721112705001
 31
0.0
  0
LINE
  5
263
  8
LAYER_01
  6
CONTINUOUS
 62
     1
 10
-34.44713730704996
 20
-42.72278887294999
 30
0.0
 11
-34.44713730704996
 21
-46.72278887294999
 31
0.0
  0
LINE
  5
264
  8
LAYER_01
  6
CONTINUOUS
 62
     1
 10
-34.44713730704996
 20
-46.72278887294999
 30
0.0
 11
-30.44713730704996
 21
-46.72278887294999
 31
0.0
  0
LINE
  5
265
  8
LAYER_01
  6
CONTINUOUS
 62
     1
 10
-30.44713730704996
 20
-46.72278887294999
 30
0.0
 11
-30.44713730704996
 21
-42.72278887294999
 31
0.0
  0
LINE
  5
266
  8
LAYER_01
  6
CONTINUOUS
 62
     1
 10
-34.44713730704996
 20
49.27721112705001
 30
0.0
 11
-34.44713730704996
 21
53.27721112705001
 31
0.0
  0
LINE
  5
267
  8
LAYER_01
  6
CONTINUOUS
 62
     1
 10
-30.44713730704996
 20
53.27721112705001
 30
0.0
 11
-34.44713730704996
 21
53.27721112705001
 31
0.0
  0
LINE
  5
268
  8
LAYER_01
  6
CONTINUOUS
 62
     1
 10
-30.44713730704996
 20
49.27721112705001
 30
0.0
 11
-30.44713730704996
 21
53.27721112705001
 31
0.0
  0
LINE
  5
269
  8
LAYER_01
  6
CONTINUOUS
 62
     1
 10
-26.44713730704999
 20
-42.72278887294999
 30
0.0
 11
-26.44713730704999
 21
-46.72278887294999
 31
0.0
  0
LINE
  5
26A
  8
LAYER_01
  6
CONTINUOUS
 62
     1
 10
-26.44713730704999
 20
-46.72278887294999
 30
0.0
 11
-22.44713730704999
 21
-46.72278887294999
 31
0.0
  0
LINE
  5
26B
  8
LAYER_01
  6
CONTINUOUS
 62
     1
 10
-22.44713730704999
 20
-46.72278887294999
 30
0.0
 11
-22.44713730704999
 21
-42.72278887294999
 31
0.0
  0
LINE
  5
26C
  8
LAYER_01
  6
CONTINUOUS
 62
     1
 10
-26.44713730704999
 20
49.27721112705001
 30
0.0
 11
-26.44713730704999
 21
53.27721112705001
 31
0.0
  0
LINE
  5
26D
  8
LAYER_01
  6
CONTINUOUS
 62
     1
 10
-22.44713730704999
 20
53.27721112705001
 30
0.0
 11
-26.44713730704999
 21
53.27721112705001
 31
0.0
  0
LINE
  5
26E
  8
LAYER_01
  6
CONTINUOUS
 62
     1
 10
-22.44713730704999
 20
49.27721112705001
 30
0.0
 11
-22.44713730704999
 21
53.27721112705001
 31
0.0
  0
LINE
  5
26F
  8
LAYER_01
  6
CONTINUOUS
 62
     1
 10
-18.44713730704999
 20
-42.72278887294999
 30
0.0
 11
-18.44713730704999
 21
-46.72278887294999
 31
0.0
  0
LINE
  5
270
  8
LAYER_01
  6
CONTINUOUS
 62
     1
 10
-18.44713730704999
 20
-46.72278887294999
 30
0.0
 11
-14.44713730704999
 21
-46.72278887294999
 31
0.0
  0
LINE
  5
271
  8
LAYER_01
  6
CONTINUOUS
 62
     1
 10
-14.44713730704999
 20
-46.72278887294999
 30
0.0
 11
-14.44713730704999
 21
-42.72278887294999
 31
0.0
  0
LINE
  5
272
  8
LAYER_01
  6
CONTINUOUS
 62
     1
 10
-18.44713730704999
 20
49.27721112705001
 30
0.0
 11
-18.44713730704999
 21
53.27721112705001
 31
0.0
  0
LINE
  5
273
  8
LAYER_01
  6
CONTINUOUS
 62
     1
 10
-14.44713730704999
 20
53.27721112705001
 30
0.0
 11
-18.44713730704999
 21
53.27721112705001
 31
0.0
  0
LINE
  5
274
  8
LAYER_01
  6
CONTINUOUS
 62
     1
 10
-14.44713730704999
 20
49.27721112705001
 30
0.0
 11
-14.44713730704999
 21
53.27721112705001
 31
0.0
  0
LINE
  5
275
  8
LAYER_01
  6
CONTINUOUS
 62
     1
 10
-10.44713730704999
 20
-42.72278887294999
 30
0.0
 11
-10.44713730704999
 21
-46.72278887294999
 31
0.0
  0
LINE
  5
276
  8
LAYER_01
  6
CONTINUOUS
 62
     1
 10
-10.44713730704999
 20
-46.72278887294999
 30
0.0
 11
-6.447137307049985
 21
-46.72278887294999
 31
0.0
  0
LINE
  5
277
  8
LAYER_01
  6
CONTINUOUS
 62
     1
 10
-6.447137307049985
 20
-46.72278887294999
 30
0.0
 11
-6.447137307049985
 21
-42.72278887294999
 31
0.0
  0
LINE
  5
278
  8
LAYER_01
  6
CONTINUOUS
 62
     1
 10
-10.44713730704999
 20
49.27721112705001
 30
0.0
 11
-10.44713730704999
 21
53.27721112705001
 31
0.0
  0
LINE
  5
279
  8
LAYER_01
  6
CONTINUOUS
 62
     1
 10
-6.447137307049985
 20
53.27721112705001
 30
0.0
 11
-10.44713730704999
 21
53.27721112705001
 31
0.0
  0
LINE
  5
27A
  8
LAYER_01
  6
CONTINUOUS
 62
     1
 10
-6.447137307049985
 20
49.27721112705001
 30
0.0
 11
-6.447137307049985
 21
53.27721112705001
 31
0.0
  0
LINE
  5
27B
  8
LAYER_01
  6
CONTINUOUS
 62
     1
 10
-2.447137307049985
 20
-42.72278887294999
 30
0.0
 11
-2.447137307049985
 21
-46.72278887294999
 31
0.0
  0
LINE
  5
27C
  8
LAYER_01
  6
CONTINUOUS
 62
     1
 10
-2.447137307049985
 20
-46.72278887294999
 30
0.0
 11
1.552862692950015
 21
-46.72278887294999
 31
0.0
  0
LINE
  5
27D
  8
LAYER_01
  6
CONTINUOUS
 62
     1
 10
1.552862692950015
 20
-46.72278887294999
 30
0.0
 11
1.552862692950015
 21
-42.72278887294999
 31
0.0
  0
LINE
  5
27E
  8
LAYER_01
  6
CONTINUOUS
 62
     1
 10
-2.447137307049985
 20
49.27721112705001
 30
0.0
 11
-2.447137307049985
 21
53.27721112705001
 31
0.0
  0
LINE
  5
27F
  8
LAYER_01
  6
CONTINUOUS
 62
     1
 10
1.552862692950015
 20
53.27721112705001
 30
0.0
 11
-2.447137307049985
 21
53.27721112705001
 31
0.0
  0
LINE
  5
280
  8
LAYER_01
  6
CONTINUOUS
 62
     1
 10
1.552862692950015
 20
49.27721112705001
 30
0.0
 11
1.552862692950015
 21
53.27721112705001
 31
0.0
  0
LINE
  5
281
  8
LAYER_01
  6
CONTINUOUS
 62
     1
 10
5.552862692950043
 20
-42.72278887294999
 30
0.0
 11
5.552862692950043
 21
-46.72278887294999
 31
0.0
  0
LINE
  5
282
  8
LAYER_01
  6
CONTINUOUS
 62
     1
 10
5.552862692950043
 20
-46.72278887294999
 30
0.0
 11
9.552862692950043
 21
-46.72278887294999
 31
0.0
  0
LINE
  5
283
  8
LAYER_01
  6
CONTINUOUS
 62
     1
 10
9.552862692950043
 20
-46.72278887294999
 30
0.0
 11
9.552862692950043
 21
-42.72278887294999
 31
0.0
  0
LINE
  5
284
  8
LAYER_01
  6
CONTINUOUS
 62
     1
 10
5.552862692950043
 20
49.27721112705001
 30
0.0
 11
5.552862692950043
 21
53.27721112705001
 31
0.0
  0
LINE
  5
285
  8
LAYER_01
  6
CONTINUOUS
 62
     1
 10
9.552862692950043
 20
53.27721112705001
 30
0.0
 11
5.552862692950043
 21
53.27721112705001
 31
0.0
  0
LINE
  5
286
  8
LAYER_01
  6
CONTINUOUS
 62
     1
 10
9.552862692950043
 20
49.27721112705001
 30
0.0
 11
9.552862692950043
 21
53.27721112705001
 31
0.0
  0
LINE
  5
287
  8
LAYER_01
  6
CONTINUOUS
 62
     1
 10
13.55286269295004
 20
-42.72278887294999
 30
0.0
 11
13.55286269295004
 21
-46.72278887294999
 31
0.0
  0
LINE
  5
288
  8
LAYER_01
  6
CONTINUOUS
 62
     1
 10
13.55286269295004
 20
-46.72278887294999
 30
0.0
 11
17.55286269295004
 21
-46.72278887294999
 31
0.0
  0
LINE
  5
289
  8
LAYER_01
  6
CONTINUOUS
 62
     1
 10
17.55286269295004
 20
-46.72278887294999
 30
0.0
 11
17.55286269295004
 21
-42.72278887294999
 31
0.0
  0
LINE
  5
28A
  8
LAYER_01
  6
CONTINUOUS
 62
     1
 10
13.55286269295004
 20
49.27721112705001
 30
0.0
 11
13.55286269295004
 21
53.27721112705001
 31
0.0
  0
LINE
  5
28B
  8
LAYER_01
  6
CONTINUOUS
 62
     1
 10
17.55286269295004
 20
53.27721112705001
 30
0.0
 11
13.55286269295004
 21
53.27721112705001
 31
0.0
  0
LINE
  5
28C
  8
LAYER_01
  6
CONTINUOUS
 62
     1
 10
17.55286269295004
 20
49.27721112705001
 30
0.0
 11
17.55286269295004
 21
53.27721112705001
 31
0.0
  0
LINE
  5
28D
  8
LAYER_01
  6
CONTINUOUS
 62
     1
 10
21.55286269295004
 20
-42.72278887294999
 30
0.0
 11
21.55286269295004
 21
-46.72278887294999
 31
0.0
  0
LINE
  5
28E
  8
LAYER_01
  6
CONTINUOUS
 62
     1
 10
21.55286269295004
 20
49.27721112705001
 30
0.0
 11
21.55286269295004
 21
53.27721112705001
 31
0.0
  0
LINE
  5
28F
  8
LAYER_01
  6
CONTINUOUS
 62
     1
 10
-74.44713730704996
 20
-42.72278887294999
 30
0.0
 11
-78.44713730704996
 21
-42.72278887294999
 31
0.0
  0
LINE
  5
290
  8
LAYER_01
  6
CONTINUOUS
 62
     1
 10
-66.44713730704996
 20
-42.72278887294999
 30
0.0
 11
-70.44713730704996
 21
-42.72278887294999
 31
0.0
  0
LINE
  5
291
  8
LAYER_01
  6
CONTINUOUS
 62
     1
 10
-58.44713730704996
 20
-42.72278887294999
 30
0.0
 11
-62.44713730704996
 21
-42.72278887294999
 31
0.0
  0
LINE
  5
292
  8
LAYER_01
  6
CONTINUOUS
 62
     1
 10
-50.44713730704996
 20
-42.72278887294999
 30
0.0
 11
-54.44713730704996
 21
-42.72278887294999
 31
0.0
  0
LINE
  5
293
  8
LAYER_01
  6
CONTINUOUS
 62
     1
 10
-42.44713730704996
 20
-42.72278887294999
 30
0.0
 11
-46.44713730704996
 21
-42.72278887294999
 31
0.0
  0
LINE
  5
294
  8
LAYER_01
  6
CONTINUOUS
 62
     1
 10
-34.44713730704996
 20
-42.72278887294999
 30
0.0
 11
-38.44713730704996
 21
-42.72278887294999
 31
0.0
  0
LINE
  5
295
  8
LAYER_01
  6
CONTINUOUS
 62
     1
 10
-26.44713730704999
 20
-42.72278887294999
 30
0.0
 11
-30.44713730704996
 21
-42.72278887294999
 31
0.0
  0
LINE
  5
296
  8
LAYER_01
  6
CONTINUOUS
 62
     1
 10
-18.44713730704999
 20
-42.72278887294999
 30
0.0
 11
-22.44713730704999
 21
-42.72278887294999
 31
0.0
  0
LINE
  5
297
  8
LAYER_01
  6
CONTINUOUS
 62
     1
 10
-10.44713730704999
 20
-42.72278887294999
 30
0.0
 11
-14.44713730704999
 21
-42.72278887294999
 31
0.0
  0
LINE
  5
298
  8
LAYER_01
  6
CONTINUOUS
 62
     1
 10
-2.447137307049985
 20
-42.72278887294999
 30
0.0
 11
-6.447137307049985
 21
-42.72278887294999
 31
0.0
  0
LINE
  5
299
  8
LAYER_01
  6
CONTINUOUS
 62
     1
 10
5.552862692950043
 20
-42.72278887294999
 30
0.0
 11
1.552862692950015
 21
-42.72278887294999
 31
0.0
  0
LINE
  5
29A
  8
LAYER_01
  6
CONTINUOUS
 62
     1
 10
13.55286269295004
 20
-42.72278887294999
 30
0.0
 11
9.552862692950043
 21
-42.72278887294999
 31
0.0
  0
LINE
  5
29B
  8
LAYER_01
  6
CONTINUOUS
 62
     1
 10
21.55286269295004
 20
-42.72278887294999
 30
0.0
 11
17.55286269295004
 21
-42.72278887294999
 31
0.0
  0
LINE
  5
29C
  8
LAYER_01
  6
CONTINUOUS
 62
     1
 10
21.55286269295004
 20
49.27721112705001
 30
0.0
 11
17.55286269295004
 21
49.27721112705001
 31
0.0
  0
LINE
  5
29D
  8
LAYER_01
  6
CONTINUOUS
 62
     1
 10
13.55286269295004
 20
49.27721112705001
 30
0.0
 11
9.552862692950043
 21
49.27721112705001
 31
0.0
  0
LINE
  5
29E
  8
LAYER_01
  6
CONTINUOUS
 62
     1
 10
5.552862692950043
 20
49.27721112705001
 30
0.0
 11
1.552862692950015
 21
49.27721112705001
 31
0.0
  0
LINE
  5
29F
  8
LAYER_01
  6
CONTINUOUS
 62
     1
 10
-2.447137307049985
 20
49.27721112705001
 30
0.0
 11
-6.447137307049985
 21
49.27721112705001
 31
0.0
  0
LINE
  5
2A0
  8
LAYER_01
  6
CONTINUOUS
 62
     1
 10
-10.44713730704999
 20
49.27721112705001
 30
0.0
 11
-14.44713730704999
 21
49.27721112705001
 31
0.0
  0
LINE
  5
2A1
  8
LAYER_01
  6
CONTINUOUS
 62
     1
 10
-18.44713730704999
 20
49.27721112705001
 30
0.0
 11
-22.44713730704999
 21
49.27721112705001
 31
0.0
  0
LINE
  5
2A2
  8
LAYER_01
  6
CONTINUOUS
 62
     1
 10
-26.44713730704999
 20
49.27721112705001
 30
0.0
 11
-30.44713730704996
 21
49.27721112705001
 31
0.0
  0
LINE
  5
2A3
  8
LAYER_01
  6
CONTINUOUS
 62
     1
 10
-34.44713730704996
 20
49.27721112705001
 30
0.0
 11
-38.44713730704996
 21
49.27721112705001
 31
0.0
  0
LINE
  5
2A4
  8
LAYER_01
  6
CONTINUOUS
 62
     1
 10
-42.44713730704996
 20
49.27721112705001
 30
0.0
 11
-46.44713730704996
 21
49.27721112705001
 31
0.0
  0
LINE
  5
2A5
  8
LAYER_01
  6
CONTINUOUS
 62
     1
 10
-50.44713730704996
 20
49.27721112705001
 30
0.0
 11
-54.44713730704996
 21
49.27721112705001
 31
0.0
  0
LINE
  5
2A6
  8
LAYER_01
  6
CONTINUOUS
 62
     1
 10
-58.44713730704996
 20
49.27721112705001
 30
0.0
 11
-62.44713730704996
 21
49.27721112705001
 31
0.0
  0
LINE
  5
2A7
  8
LAYER_01
  6
CONTINUOUS
 62
     1
 10
-66.44713730704996
 20
49.27721112705001
 30
0.0
 11
-70.44713730704996
 21
49.27721112705001
 31
0.0
  0
LINE
  5
2A8
  8
LAYER_01
  6
CONTINUOUS
 62
     1
 10
-74.44713730704996
 20
49.27721112705001
 30
0.0
 11
-78.44713730704996
 21
49.27721112705001
 31
0.0
  0
LINE
  5
2A9
  8
LAYER_01
  6
CONTINUOUS
 62
     1
 10
-70.44713730704996
 20
-19.72278887294999
 30
0.0
 11
-70.44713730704996
 21
26.27721112705001
 31
0.0
  0
LINE
  5
2AA
  8
LAYER_01
  6
CONTINUOUS
 62
     1
 10
-80.44713730704996
 20
-44.72278887294999
 30
0.0
 11
-80.44713730704996
 21
1.277211127050009
 31
0.0
  0
LINE
  5
2AB
  8
LAYER_01
  6
CONTINUOUS
 62
     1
 10
-76.44713730704996
 20
-40.81617494915
 30
0.0
 11
-76.44713730704996
 21
1.277211127050009
 31
0.0
  0
LINE
  5
2AC
  8
LAYER_01
  6
CONTINUOUS
 62
     1
 10
-70.44713730704996
 20
49.27721112705001
 30
0.0
 11
-70.44713730704996
 21
30.27721112705001
 31
0.0
  0
LINE
  5
2AD
  8
LAYER_01
  6
CONTINUOUS
 62
     1
 10
-78.44713730704996
 20
-42.72278887294999
 30
0.0
 11
-78.44713730704996
 21
-23.72278887294999
 31
0.0
  0
LINE
  5
2AE
  8
LAYER_01
  6
CONTINUOUS
 62
     1
 10
-78.44713730704996
 20
-19.72278887294999
 30
0.0
 11
-78.44713730704996
 21
26.27721112705001
 31
0.0
  0
LINE
  5
2AF
  8
LAYER_01
  6
CONTINUOUS
 62
     1
 10
-80.44713730704996
 20
51.27721112705001
 30
0.0
 11
-80.44713730704996
 21
5.277211127050009
 31
0.0
  0
LINE
  5
2B0
  8
LAYER_01
  6
CONTINUOUS
 62
     1
 10
-78.44713730704996
 20
49.27721112705001
 30
0.0
 11
-78.44713730704996
 21
30.27721112715001
 31
0.0
  0
LINE
  5
2B1
  8
LAYER_01
  6
CONTINUOUS
 62
     1
 10
-76.44713730704996
 20
47.37059720335
 30
0.0
 11
-76.44713730704996
 21
5.277211127050009
 31
0.0
  0
LINE
  5
2B2
  8
LAYER_01
  6
CONTINUOUS
 62
     1
 10
-74.44713730704996
 20
49.27721112705001
 30
0.0
 11
-74.44713730704996
 21
30.27721112715001
 31
0.0
  0
LINE
  5
2B3
  8
LAYER_01
  6
CONTINUOUS
 62
     1
 10
-74.44713730704996
 20
-19.72278887294999
 30
0.0
 11
-74.44713730704996
 21
26.27721112705001
 31
0.0
  0
LINE
  5
2B4
  8
LAYER_01
  6
CONTINUOUS
 62
     1
 10
-74.44713730704996
 20
-42.72278887294999
 30
0.0
 11
-74.44713730704996
 21
-23.72278887294999
 31
0.0
  0
LINE
  5
2B5
  8
LAYER_01
  6
CONTINUOUS
 62
     1
 10
-68.44713730704996
 20
47.37059720335
 30
0.0
 11
-68.44713730704996
 21
5.277211127050009
 31
0.0
  0
LINE
  5
2B6
  8
LAYER_01
  6
CONTINUOUS
 62
     1
 10
-68.44713730704996
 20
-40.81617494915
 30
0.0
 11
-68.44713730704996
 21
1.277211127050009
 31
0.0
  0
LINE
  5
2B7
  8
LAYER_01
  6
CONTINUOUS
 62
     1
 10
-66.44713730704996
 20
-19.72278887294999
 30
0.0
 11
-66.44713730704996
 21
26.27721112705001
 31
0.0
  0
LINE
  5
2B8
  8
LAYER_01
  6
CONTINUOUS
 62
     1
 10
-66.44713730704996
 20
-42.72278887294999
 30
0.0
 11
-66.44713730704996
 21
-23.72278887294999
 31
0.0
  0
LINE
  5
2B9
  8
LAYER_01
  6
CONTINUOUS
 62
     1
 10
-66.44713730704996
 20
49.27721112705001
 30
0.0
 11
-66.44713730704996
 21
30.27721112705001
 31
0.0
  0
LINE
  5
2BA
  8
LAYER_01
  6
CONTINUOUS
 62
     1
 10
-64.44713730704996
 20
-44.72278887294999
 30
0.0
 11
-64.44713730704996
 21
1.277211127050009
 31
0.0
  0
LINE
  5
2BB
  8
LAYER_01
  6
CONTINUOUS
 62
     1
 10
-64.44713730704996
 20
51.27721112705001
 30
0.0
 11
-64.44713730704996
 21
5.277211127050009
 31
0.0
  0
LINE
  5
2BC
  8
LAYER_01
  6
CONTINUOUS
 62
     1
 10
-62.44713730704996
 20
-42.72278887294999
 30
0.0
 11
-62.44713730704996
 21
-23.72278887294999
 31
0.0
  0
LINE
  5
2BD
  8
LAYER_01
  6
CONTINUOUS
 62
     1
 10
-62.44713730704996
 20
-19.72278887294999
 30
0.0
 11
-62.44713730704996
 21
26.27721112705001
 31
0.0
  0
LINE
  5
2BE
  8
LAYER_01
  6
CONTINUOUS
 62
     1
 10
-62.44713730704996
 20
49.27721112705001
 30
0.0
 11
-62.44713730704996
 21
30.27721112705001
 31
0.0
  0
LINE
  5
2BF
  8
LAYER_01
  6
CONTINUOUS
 62
     1
 10
-60.44713730704996
 20
47.37059720335
 30
0.0
 11
-60.44713730704996
 21
5.277211127050009
 31
0.0
  0
LINE
  5
2C0
  8
LAYER_01
  6
CONTINUOUS
 62
     1
 10
-60.44713730704996
 20
-40.81617494915
 30
0.0
 11
-60.44713730704996
 21
1.277211127050009
 31
0.0
  0
LINE
  5
2C1
  8
LAYER_01
  6
CONTINUOUS
 62
     1
 10
-58.44713730704996
 20
-19.72278887294999
 30
0.0
 11
-58.44713730704996
 21
26.27721112705001
 31
0.0
  0
LINE
  5
2C2
  8
LAYER_01
  6
CONTINUOUS
 62
     1
 10
-58.44713730704996
 20
-42.72278887294999
 30
0.0
 11
-58.44713730704996
 21
-23.72278887294999
 31
0.0
  0
LINE
  5
2C3
  8
LAYER_01
  6
CONTINUOUS
 62
     1
 10
-58.44713730704996
 20
49.27721112705001
 30
0.0
 11
-58.44713730704996
 21
30.27721112705001
 31
0.0
  0
LINE
  5
2C4
  8
LAYER_01
  6
CONTINUOUS
 62
     1
 10
-56.44713730704996
 20
-44.72278887294999
 30
0.0
 11
-56.44713730704996
 21
1.277211127050009
 31
0.0
  0
LINE
  5
2C5
  8
LAYER_01
  6
CONTINUOUS
 62
     1
 10
-56.44713730704996
 20
51.27721112705001
 30
0.0
 11
-56.44713730704996
 21
5.277211127050009
 31
0.0
  0
LINE
  5
2C6
  8
LAYER_01
  6
CONTINUOUS
 62
     1
 10
-54.44713730704996
 20
-42.72278887294999
 30
0.0
 11
-54.44713730704996
 21
-23.72278887294999
 31
0.0
  0
LINE
  5
2C7
  8
LAYER_01
  6
CONTINUOUS
 62
     1
 10
-54.44713730704996
 20
-19.72278887294999
 30
0.0
 11
-54.44713730704996
 21
26.27721112705001
 31
0.0
  0
LINE
  5
2C8
  8
LAYER_01
  6
CONTINUOUS
 62
     1
 10
-54.44713730704996
 20
49.27721112705001
 30
0.0
 11
-54.44713730704996
 21
30.27721112705001
 31
0.0
  0
LINE
  5
2C9
  8
LAYER_01
  6
CONTINUOUS
 62
     1
 10
-52.44713730704996
 20
47.37059720335
 30
0.0
 11
-52.44713730704996
 21
5.277211127050009
 31
0.0
  0
LINE
  5
2CA
  8
LAYER_01
  6
CONTINUOUS
 62
     1
 10
-52.44713730704996
 20
-40.81617494915
 30
0.0
 11
-52.44713730704996
 21
1.277211127050009
 31
0.0
  0
LINE
  5
2CB
  8
LAYER_01
  6
CONTINUOUS
 62
     1
 10
-50.44713730704996
 20
-19.72278887294999
 30
0.0
 11
-50.44713730704996
 21
26.27721112705001
 31
0.0
  0
LINE
  5
2CC
  8
LAYER_01
  6
CONTINUOUS
 62
     1
 10
-50.44713730704996
 20
-42.72278887294999
 30
0.0
 11
-50.44713730704996
 21
-23.72278887294999
 31
0.0
  0
LINE
  5
2CD
  8
LAYER_01
  6
CONTINUOUS
 62
     1
 10
-50.44713730704996
 20
49.27721112705001
 30
0.0
 11
-50.44713730704996
 21
30.27721112705001
 31
0.0
  0
LINE
  5
2CE
  8
LAYER_01
  6
CONTINUOUS
 62
     1
 10
-48.44713730704996
 20
-44.72278887294999
 30
0.0
 11
-48.44713730704996
 21
1.277211127050009
 31
0.0
  0
LINE
  5
2CF
  8
LAYER_01
  6
CONTINUOUS
 62
     1
 10
-48.44713730704996
 20
51.27721112705001
 30
0.0
 11
-48.44713730704996
 21
5.277211127050009
 31
0.0
  0
LINE
  5
2D0
  8
LAYER_01
  6
CONTINUOUS
 62
     1
 10
-46.44713730704996
 20
-42.72278887294999
 30
0.0
 11
-46.44713730704996
 21
-23.72278887294999
 31
0.0
  0
LINE
  5
2D1
  8
LAYER_01
  6
CONTINUOUS
 62
     1
 10
-46.44713730704996
 20
-19.72278887294999
 30
0.0
 11
-46.44713730704996
 21
26.27721112705001
 31
0.0
  0
LINE
  5
2D2
  8
LAYER_01
  6
CONTINUOUS
 62
     1
 10
-46.44713730704996
 20
49.27721112705001
 30
0.0
 11
-46.44713730704996
 21
30.27721112705001
 31
0.0
  0
LINE
  5
2D3
  8
LAYER_01
  6
CONTINUOUS
 62
     1
 10
-44.44713730704996
 20
47.37059720335
 30
0.0
 11
-44.44713730704996
 21
5.277211127050009
 31
0.0
  0
LINE
  5
2D4
  8
LAYER_01
  6
CONTINUOUS
 62
     1
 10
-44.44713730704996
 20
-40.81617494915
 30
0.0
 11
-44.44713730704996
 21
1.277211127050009
 31
0.0
  0
LINE
  5
2D5
  8
LAYER_01
  6
CONTINUOUS
 62
     1
 10
-42.44713730704996
 20
-19.72278887294999
 30
0.0
 11
-42.44713730704996
 21
26.27721112705001
 31
0.0
  0
LINE
  5
2D6
  8
LAYER_01
  6
CONTINUOUS
 62
     1
 10
-42.44713730704996
 20
-42.72278887294999
 30
0.0
 11
-42.44713730704996
 21
-23.72278887294999
 31
0.0
  0
LINE
  5
2D7
  8
LAYER_01
  6
CONTINUOUS
 62
     1
 10
-42.44713730704996
 20
49.27721112705001
 30
0.0
 11
-42.44713730704996
 21
30.27721112705001
 31
0.0
  0
LINE
  5
2D8
  8
LAYER_01
  6
CONTINUOUS
 62
     1
 10
-40.44713730704996
 20
-44.72278887294999
 30
0.0
 11
-40.44713730704996
 21
1.277211127050009
 31
0.0
  0
LINE
  5
2D9
  8
LAYER_01
  6
CONTINUOUS
 62
     1
 10
-40.44713730704996
 20
51.27721112705001
 30
0.0
 11
-40.44713730704996
 21
5.277211127050009
 31
0.0
  0
LINE
  5
2DA
  8
LAYER_01
  6
CONTINUOUS
 62
     1
 10
-38.44713730704996
 20
-42.72278887294999
 30
0.0
 11
-38.44713730704996
 21
-23.72278887294999
 31
0.0
  0
LINE
  5
2DB
  8
LAYER_01
  6
CONTINUOUS
 62
     1
 10
-38.44713730704996
 20
-19.72278887294999
 30
0.0
 11
-38.44713730704996
 21
26.27721112705001
 31
0.0
  0
LINE
  5
2DC
  8
LAYER_01
  6
CONTINUOUS
 62
     1
 10
-38.44713730704996
 20
49.27721112705001
 30
0.0
 11
-38.44713730704996
 21
30.27721112705001
 31
0.0
  0
LINE
  5
2DD
  8
LAYER_01
  6
CONTINUOUS
 62
     1
 10
-36.44713730704996
 20
47.37059720335
 30
0.0
 11
-36.44713730704996
 21
5.277211127050009
 31
0.0
  0
LINE
  5
2DE
  8
LAYER_01
  6
CONTINUOUS
 62
     1
 10
-36.44713730704996
 20
-40.81617494915
 30
0.0
 11
-36.44713730704996
 21
1.277211127050009
 31
0.0
  0
LINE
  5
2DF
  8
LAYER_01
  6
CONTINUOUS
 62
     1
 10
-34.44713730704996
 20
-19.72278887294999
 30
0.0
 11
-34.44713730704996
 21
26.27721112705001
 31
0.0
  0
LINE
  5
2E0
  8
LAYER_01
  6
CONTINUOUS
 62
     1
 10
-34.44713730704996
 20
-42.72278887294999
 30
0.0
 11
-34.44713730704996
 21
-23.72278887294999
 31
0.0
  0
LINE
  5
2E1
  8
LAYER_01
  6
CONTINUOUS
 62
     1
 10
-34.44713730704996
 20
49.27721112705001
 30
0.0
 11
-34.44713730704996
 21
30.27721112705001
 31
0.0
  0
LINE
  5
2E2
  8
LAYER_01
  6
CONTINUOUS
 62
     1
 10
-32.44713730704999
 20
-44.72278887294999
 30
0.0
 11
-32.44713730704999
 21
1.277211127050009
 31
0.0
  0
LINE
  5
2E3
  8
LAYER_01
  6
CONTINUOUS
 62
     1
 10
-32.44713730704999
 20
51.27721112705001
 30
0.0
 11
-32.44713730704999
 21
5.277211127050009
 31
0.0
  0
LINE
  5
2E4
  8
LAYER_01
  6
CONTINUOUS
 62
     1
 10
-30.44713730704996
 20
-42.72278887294999
 30
0.0
 11
-30.44713730704996
 21
-23.72278887294999
 31
0.0
  0
LINE
  5
2E5
  8
LAYER_01
  6
CONTINUOUS
 62
     1
 10
-30.44713730704996
 20
-19.72278887294999
 30
0.0
 11
-30.44713730704996
 21
26.27721112705001
 31
0.0
  0
LINE
  5
2E6
  8
LAYER_01
  6
CONTINUOUS
 62
     1
 10
-30.44713730704996
 20
49.27721112705001
 30
0.0
 11
-30.44713730704996
 21
30.27721112705001
 31
0.0
  0
LINE
  5
2E7
  8
LAYER_01
  6
CONTINUOUS
 62
     1
 10
-28.44713730704996
 20
47.37059720335
 30
0.0
 11
-28.44713730704996
 21
5.277211127050009
 31
0.0
  0
LINE
  5
2E8
  8
LAYER_01
  6
CONTINUOUS
 62
     1
 10
-28.44713730704996
 20
-40.81617494915
 30
0.0
 11
-28.44713730704996
 21
1.277211127050009
 31
0.0
  0
LINE
  5
2E9
  8
LAYER_01
  6
CONTINUOUS
 62
     1
 10
-26.44713730704999
 20
-19.72278887294999
 30
0.0
 11
-26.44713730704999
 21
26.27721112705001
 31
0.0
  0
LINE
  5
2EA
  8
LAYER_01
  6
CONTINUOUS
 62
     1
 10
-26.44713730704999
 20
-42.72278887294999
 30
0.0
 11
-26.44713730704999
 21
-23.72278887294999
 31
0.0
  0
LINE
  5
2EB
  8
LAYER_01
  6
CONTINUOUS
 62
     1
 10
-26.44713730704999
 20
49.27721112705001
 30
0.0
 11
-26.44713730704999
 21
30.27721112705001
 31
0.0
  0
LINE
  5
2EC
  8
LAYER_01
  6
CONTINUOUS
 62
     1
 10
-24.44713730704999
 20
-44.72278887294999
 30
0.0
 11
-24.44713730704999
 21
1.277211127050009
 31
0.0
  0
LINE
  5
2ED
  8
LAYER_01
  6
CONTINUOUS
 62
     1
 10
-24.44713730704999
 20
51.27721112705001
 30
0.0
 11
-24.44713730704999
 21
5.277211127050009
 31
0.0
  0
LINE
  5
2EE
  8
LAYER_01
  6
CONTINUOUS
 62
     1
 10
-22.44713730704999
 20
-42.72278887294999
 30
0.0
 11
-22.44713730704999
 21
-23.72278887294999
 31
0.0
  0
LINE
  5
2EF
  8
LAYER_01
  6
CONTINUOUS
 62
     1
 10
-22.44713730704999
 20
-19.72278887294999
 30
0.0
 11
-22.44713730704999
 21
26.27721112705001
 31
0.0
  0
LINE
  5
2F0
  8
LAYER_01
  6
CONTINUOUS
 62
     1
 10
-22.44713730704999
 20
49.27721112705001
 30
0.0
 11
-22.44713730704999
 21
30.27721112705001
 31
0.0
  0
LINE
  5
2F1
  8
LAYER_01
  6
CONTINUOUS
 62
     1
 10
-20.44713730704999
 20
47.37059720335
 30
0.0
 11
-20.44713730704999
 21
5.277211127050009
 31
0.0
  0
LINE
  5
2F2
  8
LAYER_01
  6
CONTINUOUS
 62
     1
 10
-20.44713730704999
 20
-40.81617494915
 30
0.0
 11
-20.44713730704999
 21
1.277211127050009
 31
0.0
  0
LINE
  5
2F3
  8
LAYER_01
  6
CONTINUOUS
 62
     1
 10
-18.44713730704999
 20
-19.72278887294999
 30
0.0
 11
-18.44713730704999
 21
26.27721112705001
 31
0.0
  0
LINE
  5
2F4
  8
LAYER_01
  6
CONTINUOUS
 62
     1
 10
-18.44713730704999
 20
-42.72278887294999
 30
0.0
 11
-18.44713730704999
 21
-23.72278887294999
 31
0.0
  0
LINE
  5
2F5
  8
LAYER_01
  6
CONTINUOUS
 62
     1
 10
-18.44713730704999
 20
49.27721112705001
 30
0.0
 11
-18.44713730704999
 21
30.27721112705001
 31
0.0
  0
LINE
  5
2F6
  8
LAYER_01
  6
CONTINUOUS
 62
     1
 10
-16.44713730704999
 20
-44.72278887294999
 30
0.0
 11
-16.44713730704999
 21
1.277211127050009
 31
0.0
  0
LINE
  5
2F7
  8
LAYER_01
  6
CONTINUOUS
 62
     1
 10
-16.44713730704999
 20
51.27721112705001
 30
0.0
 11
-16.44713730704999
 21
5.277211127050009
 31
0.0
  0
LINE
  5
2F8
  8
LAYER_01
  6
CONTINUOUS
 62
     1
 10
-14.44713730704999
 20
-42.72278887294999
 30
0.0
 11
-14.44713730704999
 21
-23.72278887294999
 31
0.0
  0
LINE
  5
2F9
  8
LAYER_01
  6
CONTINUOUS
 62
     1
 10
-14.44713730704999
 20
-19.72278887294999
 30
0.0
 11
-14.44713730704999
 21
26.27721112705001
 31
0.0
  0
LINE
  5
2FA
  8
LAYER_01
  6
CONTINUOUS
 62
     1
 10
-14.44713730704999
 20
49.27721112705001
 30
0.0
 11
-14.44713730704999
 21
30.27721112705001
 31
0.0
  0
LINE
  5
2FB
  8
LAYER_01
  6
CONTINUOUS
 62
     1
 10
-12.44713730704999
 20
47.37059720335
 30
0.0
 11
-12.44713730704999
 21
5.277211127050009
 31
0.0
  0
LINE
  5
2FC
  8
LAYER_01
  6
CONTINUOUS
 62
     1
 10
-12.44713730704999
 20
-40.81617494915
 30
0.0
 11
-12.44713730704999
 21
1.277211127050009
 31
0.0
  0
LINE
  5
2FD
  8
LAYER_01
  6
CONTINUOUS
 62
     1
 10
-10.44713730704999
 20
-19.72278887294999
 30
0.0
 11
-10.44713730704999
 21
26.27721112705001
 31
0.0
  0
LINE
  5
2FE
  8
LAYER_01
  6
CONTINUOUS
 62
     1
 10
-10.44713730704999
 20
-42.72278887294999
 30
0.0
 11
-10.44713730704999
 21
-23.72278887294999
 31
0.0
  0
LINE
  5
2FF
  8
LAYER_01
  6
CONTINUOUS
 62
     1
 10
-10.44713730704999
 20
49.27721112705001
 30
0.0
 11
-10.44713730704999
 21
30.27721112705001
 31
0.0
  0
LINE
  5
300
  8
LAYER_01
  6
CONTINUOUS
 62
     1
 10
-8.447137307049985
 20
-44.72278887294999
 30
0.0
 11
-8.447137307049985
 21
1.277211127050009
 31
0.0
  0
LINE
  5
301
  8
LAYER_01
  6
CONTINUOUS
 62
     1
 10
-8.447137307049985
 20
51.27721112705001
 30
0.0
 11
-8.447137307049985
 21
5.277211127050009
 31
0.0
  0
LINE
  5
302
  8
LAYER_01
  6
CONTINUOUS
 62
     1
 10
-6.447137307049985
 20
-42.72278887294999
 30
0.0
 11
-6.447137307049985
 21
-23.72278887294999
 31
0.0
  0
LINE
  5
303
  8
LAYER_01
  6
CONTINUOUS
 62
     1
 10
-6.447137307049985
 20
-19.72278887294999
 30
0.0
 11
-6.447137307049985
 21
26.27721112705001
 31
0.0
  0
LINE
  5
304
  8
LAYER_01
  6
CONTINUOUS
 62
     1
 10
-6.447137307049985
 20
49.27721112705001
 30
0.0
 11
-6.447137307049985
 21
30.27721112705001
 31
0.0
  0
LINE
  5
305
  8
LAYER_01
  6
CONTINUOUS
 62
     1
 10
-4.447137307049985
 20
47.37059720335
 30
0.0
 11
-4.447137307049985
 21
5.277211127050009
 31
0.0
  0
LINE
  5
306
  8
LAYER_01
  6
CONTINUOUS
 62
     1
 10
-4.447137307049985
 20
-40.81617494915
 30
0.0
 11
-4.447137307049985
 21
1.277211127050009
 31
0.0
  0
LINE
  5
307
  8
LAYER_01
  6
CONTINUOUS
 62
     1
 10
-2.447137307049985
 20
-19.72278887294999
 30
0.0
 11
-2.447137307049985
 21
26.27721112705001
 31
0.0
  0
LINE
  5
308
  8
LAYER_01
  6
CONTINUOUS
 62
     1
 10
-2.447137307049985
 20
-42.72278887294999
 30
0.0
 11
-2.447137307049985
 21
-23.72278887294999
 31
0.0
  0
LINE
  5
309
  8
LAYER_01
  6
CONTINUOUS
 62
     1
 10
-2.447137307049985
 20
49.27721112705001
 30
0.0
 11
-2.447137307049985
 21
30.27721112705001
 31
0.0
  0
LINE
  5
30A
  8
LAYER_01
  6
CONTINUOUS
 62
     1
 10
-0.4471373070499851
 20
-44.72278887294999
 30
0.0
 11
-0.4471373070499851
 21
1.277211127050009
 31
0.0
  0
LINE
  5
30B
  8
LAYER_01
  6
CONTINUOUS
 62
     1
 10
-0.4471373070499851
 20
51.27721112705001
 30
0.0
 11
-0.4471373070499851
 21
5.277211127050009
 31
0.0
  0
LINE
  5
30C
  8
LAYER_01
  6
CONTINUOUS
 62
     1
 10
1.552862692950015
 20
-42.72278887294999
 30
0.0
 11
1.552862692950015
 21
-23.72278887294999
 31
0.0
  0
LINE
  5
30D
  8
LAYER_01
  6
CONTINUOUS
 62
     1
 10
1.552862692950015
 20
-19.72278887294999
 30
0.0
 11
1.552862692950015
 21
26.27721112705001
 31
0.0
  0
LINE
  5
30E
  8
LAYER_01
  6
CONTINUOUS
 62
     1
 10
1.552862692950015
 20
49.27721112705001
 30
0.0
 11
1.552862692950015
 21
30.27721112705001
 31
0.0
  0
LINE
  5
30F
  8
LAYER_01
  6
CONTINUOUS
 62
     1
 10
3.552862692950043
 20
47.37059720335
 30
0.0
 11
3.552862692950043
 21
5.277211127050009
 31
0.0
  0
LINE
  5
310
  8
LAYER_01
  6
CONTINUOUS
 62
     1
 10
3.552862692950043
 20
-40.81617494915
 30
0.0
 11
3.552862692950043
 21
1.277211127050009
 31
0.0
  0
LINE
  5
311
  8
LAYER_01
  6
CONTINUOUS
 62
     1
 10
5.552862692950043
 20
-19.72278887294999
 30
0.0
 11
5.552862692950043
 21
26.27721112705001
 31
0.0
  0
LINE
  5
312
  8
LAYER_01
  6
CONTINUOUS
 62
     1
 10
5.552862692950043
 20
-42.72278887294999
 30
0.0
 11
5.552862692950043
 21
-23.72278887294999
 31
0.0
  0
LINE
  5
313
  8
LAYER_01
  6
CONTINUOUS
 62
     1
 10
5.552862692950043
 20
49.27721112705001
 30
0.0
 11
5.552862692950043
 21
30.27721112705001
 31
0.0
  0
LINE
  5
314
  8
LAYER_01
  6
CONTINUOUS
 62
     1
 10
7.552862692950043
 20
-44.72278887294999
 30
0.0
 11
7.552862692950043
 21
1.277211127050009
 31
0.0
  0
LINE
  5
315
  8
LAYER_01
  6
CONTINUOUS
 62
     1
 10
7.552862692950043
 20
51.27721112705001
 30
0.0
 11
7.552862692950043
 21
5.277211127050009
 31
0.0
  0
LINE
  5
316
  8
LAYER_01
  6
CONTINUOUS
 62
     1
 10
9.552862692950043
 20
-42.72278887294999
 30
0.0
 11
9.552862692950043
 21
-23.72278887294999
 31
0.0
  0
LINE
  5
317
  8
LAYER_01
  6
CONTINUOUS
 62
     1
 10
9.552862692950043
 20
-19.72278887294999
 30
0.0
 11
9.552862692950043
 21
26.27721112705001
 31
0.0
  0
LINE
  5
318
  8
LAYER_01
  6
CONTINUOUS
 62
     1
 10
9.552862692950043
 20
49.27721112705001
 30
0.0
 11
9.552862692950043
 21
30.27721112705001
 31
0.0
  0
LINE
  5
319
  8
LAYER_01
  6
CONTINUOUS
 62
     1
 10
11.55286269295004
 20
47.37059720335
 30
0.0
 11
11.55286269295004
 21
5.277211127050009
 31
0.0
  0
LINE
  5
31A
  8
LAYER_01
  6
CONTINUOUS
 62
     1
 10
11.55286269295004
 20
-40.81617494915
 30
0.0
 11
11.55286269295004
 21
1.277211127050009
 31
0.0
  0
LINE
  5
31B
  8
LAYER_01
  6
CONTINUOUS
 62
     1
 10
13.55286269295004
 20
-19.72278887294999
 30
0.0
 11
13.55286269295004
 21
26.27721112705001
 31
0.0
  0
LINE
  5
31C
  8
LAYER_01
  6
CONTINUOUS
 62
     1
 10
13.55286269295004
 20
-42.72278887294999
 30
0.0
 11
13.55286269295004
 21
-23.72278887294999
 31
0.0
  0
LINE
  5
31D
  8
LAYER_01
  6
CONTINUOUS
 62
     1
 10
13.55286269295004
 20
49.27721112705001
 30
0.0
 11
13.55286269295004
 21
30.27721112705001
 31
0.0
  0
LINE
  5
31E
  8
LAYER_01
  6
CONTINUOUS
 62
     1
 10
15.55286269295004
 20
-44.72278887294999
 30
0.0
 11
15.55286269295004
 21
1.277211127050009
 31
0.0
  0
LINE
  5
31F
  8
LAYER_01
  6
CONTINUOUS
 62
     1
 10
15.55286269295004
 20
51.27721112705001
 30
0.0
 11
15.55286269295004
 21
5.277211127050009
 31
0.0
  0
LINE
  5
320
  8
LAYER_01
  6
CONTINUOUS
 62
     1
 10
17.55286269295004
 20
-42.72278887294999
 30
0.0
 11
17.55286269295004
 21
-23.72278887294999
 31
0.0
  0
LINE
  5
321
  8
LAYER_01
  6
CONTINUOUS
 62
     1
 10
17.55286269295004
 20
-19.72278887294999
 30
0.0
 11
17.55286269295004
 21
26.27721112705001
 31
0.0
  0
LINE
  5
322
  8
LAYER_01
  6
CONTINUOUS
 62
     1
 10
17.55286269295004
 20
49.27721112705001
 30
0.0
 11
17.55286269295004
 21
30.27721112705001
 31
0.0
  0
LINE
  5
323
  8
LAYER_01
  6
CONTINUOUS
 62
     1
 10
19.55286269295004
 20
47.37059720335
 30
0.0
 11
19.55286269295004
 21
5.277211127050009
 31
0.0
  0
LINE
  5
324
  8
LAYER_01
  6
CONTINUOUS
 62
     1
 10
19.55286269295004
 20
-40.81617494915
 30
0.0
 11
19.55286269295004
 21
1.277211127050009
 31
0.0
  0
LINE
  5
325
  8
LAYER_01
  6
CONTINUOUS
 62
     1
 10
21.55286269295004
 20
-19.72278887294999
 30
0.0
 11
21.55286269295004
 21
26.27721112705001
 31
0.0
  0
LINE
  5
326
  8
LAYER_01
  6
CONTINUOUS
 62
     1
 10
21.55286269295004
 20
-42.72278887294999
 30
0.0
 11
21.55286269295004
 21
-23.72278887294999
 31
0.0
  0
LINE
  5
327
  8
LAYER_01
  6
CONTINUOUS
 62
     1
 10
21.55286269295004
 20
49.27721112705001
 30
0.0
 11
21.55286269295004
 21
30.27721112705001
 31
0.0
  0
LINE
  5
328
  8
LAYER_01
  6
CONTINUOUS
 62
     1
 10
23.55286269295004
 20
-44.72278887294999
 30
0.0
 11
23.55286269295004
 21
1.277211127050009
 31
0.0
  0
LINE
  5
329
  8
LAYER_01
  6
CONTINUOUS
 62
     1
 10
23.55286269295004
 20
51.27721112705001
 30
0.0
 11
23.55286269295004
 21
5.277211127050009
 31
0.0
  0
LINE
  5
32A
  8
LAYER_01
  6
CONTINUOUS
 62
     1
 10
21.55286269295004
 20
53.27721112705001
 30
0.0
 11
25.55286269295004
 21
53.27721112705001
 31
0.0
  0
LINE
  5
32B
  8
LAYER_01
  6
CONTINUOUS
 62
     1
 10
25.55286269295004
 20
53.27721112705001
 30
0.0
 11
25.55286269295004
 21
4.708975510250013
 31
0.0
  0
LINE
  5
32C
  8
LAYER_01
  6
CONTINUOUS
 62
     1
 10
25.55286269295004
 20
-46.72278887294999
 30
0.0
 11
21.55286269295004
 21
-46.72278887294999
 31
0.0
  0
LINE
  5
32D
  8
LAYER_01
  6
CONTINUOUS
 62
     1
 10
25.75286269295003
 20
2.045446743950009
 30
0.0
 11
27.06579688575002
 21
2.045446743950009
 31
0.0
  0
LINE
  5
32E
  8
LAYER_01
  6
CONTINUOUS
 62
     1
 10
25.75286269295003
 20
4.508975510249996
 30
0.0
 11
27.06579688575002
 21
4.508975510249996
 31
0.0
  0
LINE
  5
32F
  8
LAYER_01
  6
CONTINUOUS
 62
     1
 10
25.55286269295004
 20
1.845446743950006
 30
0.0
 11
25.55286269295004
 21
-46.72278887294999
 31
0.0
  0
LINE
  5
330
  8
LAYER_01
  6
CONTINUOUS
 62
     1
 10
-86.44713730704996
 20
-46.72278887294999
 30
0.0
 11
-86.44713730704996
 21
-42.72278887294999
 31
0.0
  0
LINE
  5
331
  8
LAYER_01
  6
CONTINUOUS
 62
     1
 10
-86.44713730704996
 20
49.27721112705001
 30
0.0
 11
-86.44713730704996
 21
53.27721112705001
 31
0.0
  0
LINE
  5
332
  8
LAYER_01
  6
CONTINUOUS
 62
     1
 10
-90.44713730704996
 20
-46.72278887294999
 30
0.0
 11
-90.44713730704996
 21
53.27721112705001
 31
0.0
  0
LINE
  5
333
  8
LAYER_01
  6
CONTINUOUS
 62
     1
 10
-82.44713730704996
 20
-42.72278887294999
 30
0.0
 11
-82.44713730704996
 21
-46.72278887294999
 31
0.0
  0
LINE
  5
334
  8
LAYER_01
  6
CONTINUOUS
 62
     1
 10
-86.44713730704996
 20
53.27721112705001
 30
0.0
 11
-90.44713730704996
 21
53.27721112705001
 31
0.0
  0
LINE
  5
335
  8
LAYER_01
  6
CONTINUOUS
 62
     1
 10
-90.44713730704996
 20
-46.72278887294999
 30
0.0
 11
-86.44713730704996
 21
-46.72278887294999
 31
0.0
  0
LINE
  5
336
  8
LAYER_01
  6
CONTINUOUS
 62
     1
 10
-82.44713730704996
 20
49.27721112705001
 30
0.0
 11
-82.44713730704996
 21
53.27721112705001
 31
0.0
  0
LINE
  5
337
  8
LAYER_01
  6
CONTINUOUS
 62
     1
 10
-82.44713730704996
 20
-42.72278887294999
 30
0.0
 11
-86.44713730704996
 21
-42.72278887294999
 31
0.0
  0
LINE
  5
338
  8
LAYER_01
  6
CONTINUOUS
 62
     1
 10
-82.44713730704996
 20
49.27721112705001
 30
0.0
 11
-86.44713730704996
 21
49.27721112705001
 31
0.0
  0
LINE
  5
339
  8
LAYER_01
  6
CONTINUOUS
 62
     1
 10
-88.44713730704996
 20
-44.72278887294999
 30
0.0
 11
-88.44713730704996
 21
1.277211127050009
 31
0.0
  0
LINE
  5
33A
  8
LAYER_01
  6
CONTINUOUS
 62
     1
 10
-84.44713730704996
 20
-40.81617494915
 30
0.0
 11
-84.44713730704996
 21
1.277211127050009
 31
0.0
  0
LINE
  5
33B
  8
LAYER_01
  6
CONTINUOUS
 62
     1
 10
-86.44713730704996
 20
-42.72278887294999
 30
0.0
 11
-86.44713730704996
 21
-23.72278887294999
 31
0.0
  0
LINE
  5
33C
  8
LAYER_01
  6
CONTINUOUS
 62
     1
 10
-86.44713730704996
 20
-19.72278887294999
 30
0.0
 11
-86.44713730704996
 21
26.27721112705001
 31
0.0
  0
LINE
  5
33D
  8
LAYER_01
  6
CONTINUOUS
 62
     1
 10
-88.44713730704996
 20
51.27721112705001
 30
0.0
 11
-88.44713730704996
 21
5.277211127050009
 31
0.0
  0
LINE
  5
33E
  8
LAYER_01
  6
CONTINUOUS
 62
     1
 10
-86.44713730704996
 20
49.27721112705001
 30
0.0
 11
-86.44713730704996
 21
30.27721112715001
 31
0.0
  0
LINE
  5
33F
  8
LAYER_01
  6
CONTINUOUS
 62
     1
 10
-84.44713730704996
 20
47.37059720335
 30
0.0
 11
-84.44713730704996
 21
5.277211127050009
 31
0.0
  0
LINE
  5
340
  8
LAYER_01
  6
CONTINUOUS
 62
     1
 10
-82.44713730704996
 20
49.27721112705001
 30
0.0
 11
-82.44713730704996
 21
30.27721112715001
 31
0.0
  0
LINE
  5
341
  8
LAYER_01
  6
CONTINUOUS
 62
     1
 10
-82.44713730704996
 20
-19.72278887294999
 30
0.0
 11
-82.44713730704996
 21
26.27721112705001
 31
0.0
  0
LINE
  5
342
  8
LAYER_01
  6
CONTINUOUS
 62
     1
 10
-82.44713730704996
 20
-42.72278887294999
 30
0.0
 11
-82.44713730704996
 21
-23.72278887294999
 31
0.0
  0
ARC
  5
343
  8
LAYER_01
  6
CONTINUOUS
 62
     1
 10
-278.9019114820402
 20
-90.99999999999997
 30
0.0
 40
40.0
 50
25.51234583179999
 51
154.4876541682
  0
LINE
  5
344
  8
LAYER_01
  6
CONTINUOUS
 62
     1
 10
-315.0016114356401
 20
-73.77177712999995
 30
0.0
 11
-242.8022115284402
 21
-73.77177712999995
 31
0.0
  0
ARC
  5
345
  8
LAYER_01
  6
CONTINUOUS
 62
     1
 10
-229.9019114820402
 20
-58.0
 30
0.0
 40
3.0
 50
270.0
 51
0.0
  0
ARC
  5
346
  8
LAYER_01
  6
CONTINUOUS
 62
     1
 10
-229.9019114820402
 20
-54.0
 30
0.0
 40
3.000000000000001
 50
0.0
 51
90.0
  0
ARC
  5
347
  8
LAYER_01
  6
CONTINUOUS
 62
     1
 10
-243.9019114820402
 20
-58.0
 30
0.0
 40
3.0
 50
180.0
 51
270.0
  0
ARC
  5
348
  8
LAYER_01
  6
CONTINUOUS
 62
     1
 10
-243.9019114820402
 20
-54.0
 30
0.0
 40
3.000000000000001
 50
90.0
 51
180.0
  0
LINE
  5
349
  8
LAYER_01
  6
CONTINUOUS
 62
     1
 10
-243.9019114820402
 20
-51.0
 30
0.0
 11
-229.9019114820402
 21
-51.0
 31
0.0
  0
LINE
  5
34A
  8
LAYER_01
  6
CONTINUOUS
 62
     1
 10
-246.9019114820402
 20
-54.0
 30
0.0
 11
-246.9019114820402
 21
-58.0
 31
0.0
  0
LINE
  5
34B
  8
LAYER_01
  6
CONTINUOUS
 62
     1
 10
-243.9019114820402
 20
-61.0
 30
0.0
 11
-229.9019114820402
 21
-61.0
 31
0.0
  0
LINE
  5
34C
  8
LAYER_01
  6
CONTINUOUS
 62
     1
 10
-226.9019114820402
 20
-54.0
 30
0.0
 11
-226.9019114820402
 21
-58.0
 31
0.0
  0
LINE
  5
34D
  8
LAYER_01
  6
CONTINUOUS
 62
     1
 10
-215.9019114820402
 20
-68.0
 30
0.0
 11
-215.9019114820402
 21
-72.0
 31
0.0
  0
LINE
  5
34E
  8
LAYER_01
  6
CONTINUOUS
 62
     1
 10
-232.9019114820402
 20
-75.0
 30
0.0
 11
-218.9019114820402
 21
-75.0
 31
0.0
  0
LINE
  5
34F
  8
LAYER_01
  6
CONTINUOUS
 62
     1
 10
-235.9019114820402
 20
-68.0
 30
0.0
 11
-235.9019114820402
 21
-72.0
 31
0.0
  0
LINE
  5
350
  8
LAYER_01
  6
CONTINUOUS
 62
     1
 10
-232.9019114820402
 20
-65.0
 30
0.0
 11
-218.9019114820402
 21
-65.0
 31
0.0
  0
ARC
  5
351
  8
LAYER_01
  6
CONTINUOUS
 62
     1
 10
-232.9019114820402
 20
-68.0
 30
0.0
 40
3.000000000000001
 50
90.0
 51
180.0
  0
ARC
  5
352
  8
LAYER_01
  6
CONTINUOUS
 62
     1
 10
-232.9019114820402
 20
-72.0
 30
0.0
 40
3.0
 50
180.0
 51
270.0
  0
ARC
  5
353
  8
LAYER_01
  6
CONTINUOUS
 62
     1
 10
-218.9019114820402
 20
-68.0
 30
0.0
 40
3.000000000000001
 50
0.0
 51
90.0
  0
ARC
  5
354
  8
LAYER_01
  6
CONTINUOUS
 62
     1
 10
-218.9019114820402
 20
-72.0
 30
0.0
 40
3.0
 50
270.0
 51
0.0
  0
ARC
  5
355
  8
LAYER_01
  6
CONTINUOUS
 62
     1
 10
-0.9019114820402478
 20
-94.0
 30
0.0
 40
40.0
 50
25.5123458318
 51
154.4876541682
  0
LINE
  5
356
  8
LAYER_01
  6
CONTINUOUS
 62
     1
 10
-37.00161143564026
 20
-76.77177713
 30
0.0
 11
35.19778847155976
 21
-76.77177713
 31
0.0
  0
POLYLINE
  5
357
  8
LAYER_01
  6
CONTINUOUS
 62
     1
 66
     1
 10
0.0
 20
0.0
 30
0.0
  0
VERTEX
  5
358
  8
LAYER_01
  6
CONTINUOUS
 62
     1
 10
-37.87666267594
 20
-76.13518403585
 30
0.0
  0
VERTEX
  5
359
  8
LAYER_01
  6
CONTINUOUS
 62
     1
 10
-42.95700787254
 20
-75.68174193275
 30
0.0
  0
VERTEX
  5
35A
  8
LAYER_01
  6
CONTINUOUS
 62
     1
 10
-50.49806916064
 20
-74.63032061705
 30
0.0
  0
VERTEX
  5
35B
  8
LAYER_01
  6
CONTINUOUS
 62
     1
 10
-59.56333649203999
 20
-73.39842443485
 30
0.0
  0
VERTEX
  5
35C
  8
LAYER_01
  6
CONTINUOUS
 62
     1
 10
-66.77986126414
 20
-72.53817584495
 30
0.0
  0
VERTEX
  5
35D
  8
LAYER_01
  6
CONTINUOUS
 62
     1
 10
-73.00653718784
 20
-71.93409792875
 30
0.0
  0
VERTEX
  5
35E
  8
LAYER_01
  6
CONTINUOUS
 62
     1
 10
-77.01903297184
 20
-71.70927089365
 30
0.0
  0
SEQEND
  5
35F
  8
LAYER_01
  6
CONTINUOUS
 62
     1
  0
POLYLINE
  5
360
  8
LAYER_01
  6
CONTINUOUS
 62
     1
 66
     1
 10
0.0
 20
0.0
 30
0.0
  0
VERTEX
  5
361
  8
LAYER_01
  6
CONTINUOUS
 62
     1
 10
-116.16140312394
 20
-76.13518403585
 30
0.0
  0
VERTEX
  5
362
  8
LAYER_01
  6
CONTINUOUS
 62
     1
 10
-111.08105807114
 20
-75.68174193275
 30
0.0
  0
VERTEX
  5
363
  8
LAYER_01
  6
CONTINUOUS
 62
     1
 10
-103.53999678304
 20
-74.63032061705
 30
0.0
  0
VERTEX
  5
364
  8
LAYER_01
  6
CONTINUOUS
 62
     1
 10
-94.47472945164
 20
-73.39842443485
 30
0.0
  0
VERTEX
  5
365
  8
LAYER_01
  6
CONTINUOUS
 62
     1
 10
-87.25820467963999
 20
-72.53817584495
 30
0.0
  0
VERTEX
  5
366
  8
LAYER_01
  6
CONTINUOUS
 62
     1
 10
-81.03152875594
 20
-71.93409792875
 30
0.0
  0
VERTEX
  5
367
  8
LAYER_01
  6
CONTINUOUS
 62
     1
 10
-77.01903297184
 20
-71.70927089365
 30
0.0
  0
SEQEND
  5
368
  8
LAYER_01
  6
CONTINUOUS
 62
     1
  0
LINE
  5
369
  8
LAYER_01
  6
CONTINUOUS
 62
     1
 10
-37.87663470843999
 20
-76.13518403585
 30
0.0
 11
-40.22777571754
 21
-72.89911605835
 31
0.0
  0
LINE
  5
36A
  8
LAYER_01
  6
CONTINUOUS
 62
     1
 10
-40.22777571754
 20
-72.89911605835
 30
0.0
 11
-37.02349002203999
 21
-70.57106622865
 31
0.0
  0
LINE
  5
36B
  8
LAYER_01
  6
CONTINUOUS
 62
     1
 10
-42.42059515323999
 20
-70.33165437345001
 30
0.0
 11
-39.61994676153999
 21
-67.53100598175
 31
0.0
  0
LINE
  5
36C
  8
LAYER_01
  6
CONTINUOUS
 62
     1
 10
-42.42059515323999
 20
-70.33165437345001
 30
0.0
 11
-45.24902227804
 21
-67.50322724875001
 31
0.0
  0
LINE
  5
36D
  8
LAYER_01
  6
CONTINUOUS
 62
     1
 10
-45.24902227804
 20
-67.50322724875001
 30
0.0
 11
-42.44837388633999
 21
-64.70257885705
 31
0.0
  0
LINE
  5
36E
  8
LAYER_01
  6
CONTINUOUS
 62
     1
 10
-47.81648396284
 20
-65.31040781305
 30
0.0
 11
-45.48843413313999
 21
-62.10612211755
 31
0.0
  0
LINE
  5
36F
  8
LAYER_01
  6
CONTINUOUS
 62
     1
 10
-47.81648396284
 20
-65.31040781305
 30
0.0
 11
-51.05255194034
 21
-62.95926680385
 31
0.0
  0
LINE
  5
370
  8
LAYER_01
  6
CONTINUOUS
 62
     1
 10
-51.05255194034
 20
-62.95926680385
 30
0.0
 11
-48.72450211063999
 21
-59.75498110834999
 31
0.0
  0
LINE
  5
371
  8
LAYER_01
  6
CONTINUOUS
 62
     1
 10
-53.93143644673999
 20
-61.19508410945001
 30
0.0
 11
-52.13330949223999
 21
-57.66606125835
 31
0.0
  0
LINE
  5
372
  8
LAYER_01
  6
CONTINUOUS
 62
     1
 10
-53.93143644673999
 20
-61.19508410945001
 30
0.0
 11
-57.49546254344
 21
-59.37912211045
 31
0.0
  0
LINE
  5
373
  8
LAYER_01
  6
CONTINUOUS
 62
     1
 10
-57.49546254344
 20
-59.37912211045
 30
0.0
 11
-55.69733558903999
 21
-55.85009925935
 31
0.0
  0
LINE
  5
374
  8
LAYER_01
  6
CONTINUOUS
 62
     1
 10
-60.61488218043999
 20
-58.08701619005
 30
0.0
 11
-59.39095395433999
 21
-54.32015243815
 31
0.0
  0
LINE
  5
375
  8
LAYER_01
  6
CONTINUOUS
 62
     1
 10
-60.61488218043999
 20
-58.08701619005
 30
0.0
 11
-64.41910824553999
 21
-56.85094821255
 31
0.0
  0
LINE
  5
376
  8
LAYER_01
  6
CONTINUOUS
 62
     1
 10
-64.41910824553999
 20
-56.85094821255
 30
0.0
 11
-63.19518001953999
 21
-53.08408446065
 31
0.0
  0
LINE
  5
377
  8
LAYER_01
  6
CONTINUOUS
 62
     1
 10
-67.70225254884
 20
-56.06273500235
 30
0.0
 11
-67.08266022613999
 21
-52.15078303675
 31
0.0
  0
LINE
  5
378
  8
LAYER_01
  6
CONTINUOUS
 62
     1
 10
-67.70225254884
 20
-56.06273500235
 30
0.0
 11
-71.65300591113999
 21
-55.43699714225
 31
0.0
  0
LINE
  5
379
  8
LAYER_01
  6
CONTINUOUS
 62
     1
 10
-71.65300591113999
 20
-55.43699714225
 30
0.0
 11
-71.03341358853999
 21
-51.52504517655
 31
0.0
  0
LINE
  5
37A
  8
LAYER_01
  6
CONTINUOUS
 62
     1
 10
-75.01903297184
 20
-55.17208506735
 30
0.0
 11
-75.01903297184
 21
-51.21137012835
 31
0.0
  0
LINE
  5
37B
  8
LAYER_01
  6
CONTINUOUS
 62
     1
 10
-75.01903297184
 20
-55.17208506735
 30
0.0
 11
-79.01903297184
 21
-55.17208506735
 31
0.0
  0
LINE
  5
37C
  8
LAYER_01
  6
CONTINUOUS
 62
     1
 10
-79.01903297184
 20
-55.17208506735
 30
0.0
 11
-79.01903297184
 21
-51.21137012835
 31
0.0
  0
LINE
  5
37D
  8
LAYER_01
  6
CONTINUOUS
 62
     1
 10
-82.38506003254
 20
-55.43699714225
 30
0.0
 11
-83.00465235514
 21
-51.52504517655
 31
0.0
  0
LINE
  5
37E
  8
LAYER_01
  6
CONTINUOUS
 62
     1
 10
-82.38506003254
 20
-55.43699714225
 30
0.0
 11
-86.33581339494
 21
-56.06273500235
 31
0.0
  0
LINE
  5
37F
  8
LAYER_01
  6
CONTINUOUS
 62
     1
 10
-86.33581339494
 20
-56.06273500235
 30
0.0
 11
-86.95540571754
 21
-52.15078303675
 31
0.0
  0
LINE
  5
380
  8
LAYER_01
  6
CONTINUOUS
 62
     1
 10
-89.61895769814001
 20
-56.85094821255
 30
0.0
 11
-90.84288592414
 21
-53.08408446065
 31
0.0
  0
LINE
  5
381
  8
LAYER_01
  6
CONTINUOUS
 62
     1
 10
-89.61895769814001
 20
-56.85094821255
 30
0.0
 11
-93.42318376334
 21
-58.08701619005
 31
0.0
  0
LINE
  5
382
  8
LAYER_01
  6
CONTINUOUS
 62
     1
 10
-93.42318376334
 20
-58.08701619005
 30
0.0
 11
-94.64711198934
 21
-54.32015243815
 31
0.0
  0
LINE
  5
383
  8
LAYER_01
  6
CONTINUOUS
 62
     1
 10
-96.54260340023998
 20
-59.37912211045
 30
0.0
 11
-98.34073035474
 21
-55.85009925935
 31
0.0
  0
LINE
  5
384
  8
LAYER_01
  6
CONTINUOUS
 62
     1
 10
-96.54260340023998
 20
-59.37912211045
 30
0.0
 11
-100.10662949704
 21
-61.19508410945001
 31
0.0
  0
LINE
  5
385
  8
LAYER_01
  6
CONTINUOUS
 62
     1
 10
-100.10662949704
 20
-61.19508410945001
 30
0.0
 11
-101.90475645144
 21
-57.66606125835
 31
0.0
  0
LINE
  5
386
  8
LAYER_01
  6
CONTINUOUS
 62
     1
 10
-102.98551400344
 20
-62.95926680385
 30
0.0
 11
-105.31356383304
 21
-59.75498110834999
 31
0.0
  0
LINE
  5
387
  8
LAYER_01
  6
CONTINUOUS
 62
     1
 10
-102.98551400344
 20
-62.95926680385
 30
0.0
 11
-106.22158198094
 21
-65.31040781305
 31
0.0
  0
LINE
  5
388
  8
LAYER_01
  6
CONTINUOUS
 62
     1
 10
-106.22158198094
 20
-65.31040781305
 30
0.0
 11
-108.54963181054
 21
-62.10612211755
 31
0.0
  0
LINE
  5
389
  8
LAYER_01
  6
CONTINUOUS
 62
     1
 10
-108.78904366574
 20
-67.50322724875001
 30
0.0
 11
-111.58969205744
 21
-64.70257885705
 31
0.0
  0
LINE
  5
38A
  8
LAYER_01
  6
CONTINUOUS
 62
     1
 10
-108.78904366574
 20
-67.50322724875001
 30
0.0
 11
-111.61747079044
 21
-70.33165437345001
 31
0.0
  0
LINE
  5
38B
  8
LAYER_01
  6
CONTINUOUS
 62
     1
 10
-111.61747079044
 20
-70.33165437345001
 30
0.0
 11
-114.41811918214
 21
-67.53100598175
 31
0.0
  0
LINE
  5
38C
  8
LAYER_01
  6
CONTINUOUS
 62
     1
 10
-113.81029022614
 20
-72.89911605835
 30
0.0
 11
-117.01457592164
 21
-70.57106622865
 31
0.0
  0
LINE
  5
38D
  8
LAYER_01
  6
CONTINUOUS
 62
     1
 10
-113.81029022614
 20
-72.89911605835
 30
0.0
 11
-116.16143123534
 21
-76.13518403585
 31
0.0
  0
ARC
  5
38E
  8
LAYER_01
  6
CONTINUOUS
 62
     1
 10
-77.01903297184
 20
-102.10166506735
 30
0.0
 40
50.92958
 50
137.2505787779
 51
141.7494212221
  0
ARC
  5
38F
  8
LAYER_01
  6
CONTINUOUS
 62
     1
 10
-77.01903297184
 20
-102.10166506735
 30
0.0
 40
50.92958
 50
128.2505787779
 51
132.7494212221
  0
ARC
  5
390
  8
LAYER_01
  6
CONTINUOUS
 62
     1
 10
-77.01903297184
 20
-102.10166506735
 30
0.0
 40
50.92958
 50
119.2505787779
 51
123.7494212221
  0
ARC
  5
391
  8
LAYER_01
  6
CONTINUOUS
 62
     1
 10
-77.01903297184
 20
-102.10166506735
 30
0.0
 40
50.92958
 50
110.2505787779
 51
114.7494212221
  0
ARC
  5
392
  8
LAYER_01
  6
CONTINUOUS
 62
     1
 10
-77.01903297184
 20
-102.10166506735
 30
0.0
 40
50.92957999999999
 50
101.2505787779
 51
105.7494212221
  0
ARC
  5
393
  8
LAYER_01
  6
CONTINUOUS
 62
     1
 10
-77.01903297184
 20
-102.10166506735
 30
0.0
 40
50.92958
 50
92.2505787779
 51
96.74942122210001
  0
ARC
  5
394
  8
LAYER_01
  6
CONTINUOUS
 62
     1
 10
-77.01903297184
 20
-102.10166506735
 30
0.0
 40
50.92958
 50
83.25057877790002
 51
87.74942122209998
  0
ARC
  5
395
  8
LAYER_01
  6
CONTINUOUS
 62
     1
 10
-77.01903297184
 20
-102.10166506735
 30
0.0
 40
50.92958000000001
 50
74.25057877789999
 51
78.7494212221
  0
ARC
  5
396
  8
LAYER_01
  6
CONTINUOUS
 62
     1
 10
-77.01903297184
 20
-102.10166506735
 30
0.0
 40
50.92958000000001
 50
65.2505787779
 51
69.74942122210001
  0
ARC
  5
397
  8
LAYER_01
  6
CONTINUOUS
 62
     1
 10
-77.01903297184
 20
-102.10166506735
 30
0.0
 40
50.92957999999999
 50
56.2505787779
 51
60.74942122209999
  0
ARC
  5
398
  8
LAYER_01
  6
CONTINUOUS
 62
     1
 10
-77.01903297184
 20
-102.10166506735
 30
0.0
 40
50.92958
 50
47.25057877790002
 51
51.7494212221
  0
ARC
  5
399
  8
LAYER_01
  6
CONTINUOUS
 62
     1
 10
-77.01903297184
 20
-102.10166506735
 30
0.0
 40
50.92958
 50
38.2505787779
 51
42.74942122210001
  0
POLYLINE
  5
39A
  8
LAYER_01
  6
CONTINUOUS
 62
     1
 66
     1
 10
0.0
 20
0.0
 30
0.0
  0
VERTEX
  5
39B
  8
LAYER_01
  6
CONTINUOUS
 62
     1
 10
-121.8766626759405
 20
-76.13518403585
 30
0.0
  0
VERTEX
  5
39C
  8
LAYER_01
  6
CONTINUOUS
 62
     1
 10
-126.9570078725405
 20
-75.68174193275
 30
0.0
  0
VERTEX
  5
39D
  8
LAYER_01
  6
CONTINUOUS
 62
     1
 10
-134.4980691606405
 20
-74.63032061705
 30
0.0
  0
VERTEX
  5
39E
  8
LAYER_01
  6
CONTINUOUS
 62
     1
 10
-143.5633364920405
 20
-73.39842443484999
 30
0.0
  0
VERTEX
  5
39F
  8
LAYER_01
  6
CONTINUOUS
 62
     1
 10
-150.7798612641405
 20
-72.53817584495
 30
0.0
  0
VERTEX
  5
3A0
  8
LAYER_01
  6
CONTINUOUS
 62
     1
 10
-157.0065371878405
 20
-71.93409792875
 30
0.0
  0
VERTEX
  5
3A1
  8
LAYER_01
  6
CONTINUOUS
 62
     1
 10
-161.0190329718405
 20
-71.70927089365001
 30
0.0
  0
SEQEND
  5
3A2
  8
LAYER_01
  6
CONTINUOUS
 62
     1
  0
POLYLINE
  5
3A3
  8
LAYER_01
  6
CONTINUOUS
 62
     1
 66
     1
 10
0.0
 20
0.0
 30
0.0
  0
VERTEX
  5
3A4
  8
LAYER_01
  6
CONTINUOUS
 62
     1
 10
-200.1614031239405
 20
-76.13518403585
 30
0.0
  0
VERTEX
  5
3A5
  8
LAYER_01
  6
CONTINUOUS
 62
     1
 10
-195.0810580711405
 20
-75.68174193275
 30
0.0
  0
VERTEX
  5
3A6
  8
LAYER_01
  6
CONTINUOUS
 62
     1
 10
-187.5399967830404
 20
-74.63032061705
 30
0.0
  0
VERTEX
  5
3A7
  8
LAYER_01
  6
CONTINUOUS
 62
     1
 10
-178.4747294516405
 20
-73.39842443484999
 30
0.0
  0
VERTEX
  5
3A8
  8
LAYER_01
  6
CONTINUOUS
 62
     1
 10
-171.2582046796404
 20
-72.53817584495
 30
0.0
  0
VERTEX
  5
3A9
  8
LAYER_01
  6
CONTINUOUS
 62
     1
 10
-165.0315287559405
 20
-71.93409792875
 30
0.0
  0
VERTEX
  5
3AA
  8
LAYER_01
  6
CONTINUOUS
 62
     1
 10
-161.0190329718405
 20
-71.70927089365001
 30
0.0
  0
SEQEND
  5
3AB
  8
LAYER_01
  6
CONTINUOUS
 62
     1
  0
LINE
  5
3AC
  8
LAYER_01
  6
CONTINUOUS
 62
     1
 10
-121.8766347084404
 20
-76.13518403585
 30
0.0
 11
-124.2277757175405
 21
-72.89911605835
 31
0.0
  0
LINE
  5
3AD
  8
LAYER_01
  6
CONTINUOUS
 62
     1
 10
-124.2277757175405
 20
-72.89911605835
 30
0.0
 11
-121.0234900220404
 21
-70.57106622865
 31
0.0
  0
LINE
  5
3AE
  8
LAYER_01
  6
CONTINUOUS
 62
     1
 10
-126.4205951532404
 20
-70.33165437345001
 30
0.0
 11
-123.6199467615404
 21
-67.53100598175
 31
0.0
  0
LINE
  5
3AF
  8
LAYER_01
  6
CONTINUOUS
 62
     1
 10
-126.4205951532404
 20
-70.33165437345001
 30
0.0
 11
-129.2490222780405
 21
-67.50322724875001
 31
0.0
  0
LINE
  5
3B0
  8
LAYER_01
  6
CONTINUOUS
 62
     1
 10
-129.2490222780405
 20
-67.50322724875001
 30
0.0
 11
-126.4483738863404
 21
-64.70257885705
 31
0.0
  0
LINE
  5
3B1
  8
LAYER_01
  6
CONTINUOUS
 62
     1
 10
-131.8164839628405
 20
-65.31040781305002
 30
0.0
 11
-129.4884341331404
 21
-62.10612211755002
 31
0.0
  0
LINE
  5
3B2
  8
LAYER_01
  6
CONTINUOUS
 62
     1
 10
-131.8164839628405
 20
-65.31040781305002
 30
0.0
 11
-135.0525519403405
 21
-62.95926680384999
 31
0.0
  0
LINE
  5
3B3
  8
LAYER_01
  6
CONTINUOUS
 62
     1
 10
-135.0525519403405
 20
-62.95926680384999
 30
0.0
 11
-132.7245021106404
 21
-59.75498110834998
 31
0.0
  0
LINE
  5
3B4
  8
LAYER_01
  6
CONTINUOUS
 62
     1
 10
-137.9314364467404
 20
-61.19508410945001
 30
0.0
 11
-136.1333094922404
 21
-57.66606125835001
 31
0.0
  0
LINE
  5
3B5
  8
LAYER_01
  6
CONTINUOUS
 62
     1
 10
-137.9314364467404
 20
-61.19508410945001
 30
0.0
 11
-141.4954625434405
 21
-59.37912211045001
 31
0.0
  0
LINE
  5
3B6
  8
LAYER_01
  6
CONTINUOUS
 62
     1
 10
-141.4954625434405
 20
-59.37912211045001
 30
0.0
 11
-139.6973355890404
 21
-55.85009925934999
 31
0.0
  0
LINE
  5
3B7
  8
LAYER_01
  6
CONTINUOUS
 62
     1
 10
-144.6148821804404
 20
-58.08701619004999
 30
0.0
 11
-143.3909539543405
 21
-54.32015243815
 31
0.0
  0
LINE
  5
3B8
  8
LAYER_01
  6
CONTINUOUS
 62
     1
 10
-144.6148821804404
 20
-58.08701619004999
 30
0.0
 11
-148.4191082455405
 21
-56.85094821254999
 31
0.0
  0
LINE
  5
3B9
  8
LAYER_01
  6
CONTINUOUS
 62
     1
 10
-148.4191082455405
 20
-56.85094821254999
 30
0.0
 11
-147.1951800195405
 21
-53.08408446065
 31
0.0
  0
LINE
  5
3BA
  8
LAYER_01
  6
CONTINUOUS
 62
     1
 10
-151.7022525488404
 20
-56.06273500235001
 30
0.0
 11
-151.0826602261405
 21
-52.15078303675
 31
0.0
  0
LINE
  5
3BB
  8
LAYER_01
  6
CONTINUOUS
 62
     1
 10
-151.7022525488404
 20
-56.06273500235001
 30
0.0
 11
-155.6530059111404
 21
-55.43699714225001
 31
0.0
  0
LINE
  5
3BC
  8
LAYER_01
  6
CONTINUOUS
 62
     1
 10
-155.6530059111404
 20
-55.43699714225001
 30
0.0
 11
-155.0334135885404
 21
-51.52504517654999
 31
0.0
  0
LINE
  5
3BD
  8
LAYER_01
  6
CONTINUOUS
 62
     1
 10
-159.0190329718405
 20
-55.17208506735001
 30
0.0
 11
-159.0190329718405
 21
-51.21137012835
 31
0.0
  0
LINE
  5
3BE
  8
LAYER_01
  6
CONTINUOUS
 62
     1
 10
-159.0190329718405
 20
-55.17208506735001
 30
0.0
 11
-163.0190329718405
 21
-55.17208506735001
 31
0.0
  0
LINE
  5
3BF
  8
LAYER_01
  6
CONTINUOUS
 62
     1
 10
-163.0190329718405
 20
-55.17208506735001
 30
0.0
 11
-163.0190329718405
 21
-51.21137012835
 31
0.0
  0
LINE
  5
3C0
  8
LAYER_01
  6
CONTINUOUS
 62
     1
 10
-166.3850600325405
 20
-55.43699714225001
 30
0.0
 11
-167.0046523551405
 21
-51.52504517654999
 31
0.0
  0
LINE
  5
3C1
  8
LAYER_01
  6
CONTINUOUS
 62
     1
 10
-166.3850600325405
 20
-55.43699714225001
 30
0.0
 11
-170.3358133949405
 21
-56.06273500235001
 31
0.0
  0
LINE
  5
3C2
  8
LAYER_01
  6
CONTINUOUS
 62
     1
 10
-170.3358133949405
 20
-56.06273500235001
 30
0.0
 11
-170.9554057175405
 21
-52.15078303675
 31
0.0
  0
LINE
  5
3C3
  8
LAYER_01
  6
CONTINUOUS
 62
     1
 10
-173.6189576981405
 20
-56.85094821254999
 30
0.0
 11
-174.8428859241405
 21
-53.08408446065
 31
0.0
  0
LINE
  5
3C4
  8
LAYER_01
  6
CONTINUOUS
 62
     1
 10
-173.6189576981405
 20
-56.85094821254999
 30
0.0
 11
-177.4231837633405
 21
-58.08701619004999
 31
0.0
  0
LINE
  5
3C5
  8
LAYER_01
  6
CONTINUOUS
 62
     1
 10
-177.4231837633405
 20
-58.08701619004999
 30
0.0
 11
-178.6471119893405
 21
-54.32015243815
 31
0.0
  0
LINE
  5
3C6
  8
LAYER_01
  6
CONTINUOUS
 62
     1
 10
-180.5426034002404
 20
-59.37912211045001
 30
0.0
 11
-182.3407303547405
 21
-55.85009925934999
 31
0.0
  0
LINE
  5
3C7
  8
LAYER_01
  6
CONTINUOUS
 62
     1
 10
-180.5426034002404
 20
-59.37912211045001
 30
0.0
 11
-184.1066294970404
 21
-61.19508410945001
 31
0.0
  0
LINE
  5
3C8
  8
LAYER_01
  6
CONTINUOUS
 62
     1
 10
-184.1066294970404
 20
-61.19508410945001
 30
0.0
 11
-185.9047564514404
 21
-57.66606125835001
 31
0.0
  0
LINE
  5
3C9
  8
LAYER_01
  6
CONTINUOUS
 62
     1
 10
-186.9855140034404
 20
-62.95926680384999
 30
0.0
 11
-189.3135638330404
 21
-59.75498110834998
 31
0.0
  0
LINE
  5
3CA
  8
LAYER_01
  6
CONTINUOUS
 62
     1
 10
-186.9855140034404
 20
-62.95926680384999
 30
0.0
 11
-190.2215819809404
 21
-65.31040781305002
 31
0.0
  0
LINE
  5
3CB
  8
LAYER_01
  6
CONTINUOUS
 62
     1
 10
-190.2215819809404
 20
-65.31040781305002
 30
0.0
 11
-192.5496318105404
 21
-62.10612211755002
 31
0.0
  0
LINE
  5
3CC
  8
LAYER_01
  6
CONTINUOUS
 62
     1
 10
-192.7890436657405
 20
-67.50322724875001
 30
0.0
 11
-195.5896920574404
 21
-64.70257885705
 31
0.0
  0
LINE
  5
3CD
  8
LAYER_01
  6
CONTINUOUS
 62
     1
 10
-192.7890436657405
 20
-67.50322724875001
 30
0.0
 11
-195.6174707904404
 21
-70.33165437345001
 31
0.0
  0
LINE
  5
3CE
  8
LAYER_01
  6
CONTINUOUS
 62
     1
 10
-195.6174707904404
 20
-70.33165437345001
 30
0.0
 11
-198.4181191821405
 21
-67.53100598175
 31
0.0
  0
LINE
  5
3CF
  8
LAYER_01
  6
CONTINUOUS
 62
     1
 10
-197.8102902261404
 20
-72.89911605835
 30
0.0
 11
-201.0145759216404
 21
-70.57106622865
 31
0.0
  0
LINE
  5
3D0
  8
LAYER_01
  6
CONTINUOUS
 62
     1
 10
-197.8102902261404
 20
-72.89911605835
 30
0.0
 11
-200.1614312353404
 21
-76.13518403585
 31
0.0
  0
ARC
  5
3D1
  8
LAYER_01
  6
CONTINUOUS
 62
     1
 10
-161.0190329718405
 20
-102.10166506735
 30
0.0
 40
50.92958
 50
137.2505787779
 51
141.7494212221
  0
ARC
  5
3D2
  8
LAYER_01
  6
CONTINUOUS
 62
     1
 10
-161.0190329718405
 20
-102.10166506735
 30
0.0
 40
50.92958
 50
128.2505787779
 51
132.7494212221
  0
ARC
  5
3D3
  8
LAYER_01
  6
CONTINUOUS
 62
     1
 10
-161.0190329718405
 20
-102.10166506735
 30
0.0
 40
50.92958
 50
119.2505787779
 51
123.7494212221
  0
ARC
  5
3D4
  8
LAYER_01
  6
CONTINUOUS
 62
     1
 10
-161.0190329718405
 20
-102.10166506735
 30
0.0
 40
50.92958
 50
110.2505787779
 51
114.7494212221
  0
ARC
  5
3D5
  8
LAYER_01
  6
CONTINUOUS
 62
     1
 10
-161.0190329718405
 20
-102.10166506735
 30
0.0
 40
50.92957999999999
 50
101.2505787779
 51
105.7494212221
  0
ARC
  5
3D6
  8
LAYER_01
  6
CONTINUOUS
 62
     1
 10
-161.0190329718405
 20
-102.10166506735
 30
0.0
 40
50.92958
 50
92.2505787779
 51
96.74942122209998
  0
ARC
  5
3D7
  8
LAYER_01
  6
CONTINUOUS
 62
     1
 10
-161.0190329718405
 20
-102.10166506735
 30
0.0
 40
50.92958
 50
83.25057877790002
 51
87.7494212221
  0
ARC
  5
3D8
  8
LAYER_01
  6
CONTINUOUS
 62
     1
 10
-161.0190329718405
 20
-102.10166506735
 30
0.0
 40
50.92958000000001
 50
74.25057877789999
 51
78.74942122209998
  0
ARC
  5
3D9
  8
LAYER_01
  6
CONTINUOUS
 62
     1
 10
-161.0190329718405
 20
-102.10166506735
 30
0.0
 40
50.92958000000001
 50
65.25057877790003
 51
69.74942122210001
  0
ARC
  5
3DA
  8
LAYER_01
  6
CONTINUOUS
 62
     1
 10
-161.0190329718405
 20
-102.10166506735
 30
0.0
 40
50.92957999999999
 50
56.2505787779
 51
60.74942122209999
  0
ARC
  5
3DB
  8
LAYER_01
  6
CONTINUOUS
 62
     1
 10
-161.0190329718405
 20
-102.10166506735
 30
0.0
 40
50.92958
 50
47.25057877790002
 51
51.74942122209999
  0
ARC
  5
3DC
  8
LAYER_01
  6
CONTINUOUS
 62
     1
 10
-161.0190329718405
 20
-102.10166506735
 30
0.0
 40
50.92958
 50
38.2505787779
 51
42.74942122210001
  0
ENDSEC
  0
EOF
